Aaron Lewis

home > Aaron Lewis

Tangled Up In You Tab

Aaron Lewis

Difficulty: BeginnerBeginner

by gustsilva

tuner correct add songbook print version text version save to e-mail
chordsukulelecavacokeyboardtabbassdrumsharmonicsflute Guitar Pro
chords

Tangled Up In You

  		
  
 
  
1st Verse 4x 
e|--------------------------------------------------------------------------| 
B|--------------------------------------------------------------------------| 
G|----------------------------------------0--2--------------0--2------------| 
D|-------0--2----------0--2------------3-----------------3------------------| 
A|----3-------------3---------------3-----------------3---------------------| 
E|-3-------------3----------------------------------------------------------| 
  


 You're my world                the shelter from the rain 
You're the pill         that takes away my pain 
You're the light                that helps me guide my way 
You're the words                when I have nothing to say 


Chorus 2x 
e|---------------------------------------------0----------------------------| 
B|--------1--0-----------0--1---------------------1-------------------------| 
G|------2-------------2-----------------0--2--------------0--2--------------| 
D|---2-------------2-----------------3-----------------3--------------------| 
A|--------------------------------3-----------------3-----------------------| 
E|--------------------------------------------------------------------------| 
  
In this world                   where nothing else is true 
Here I am still tangled up in you       I'm still tangled up in you 
  
  
e|--------------------------------------------------------------------------| 
B|--------------------------------------------------------------------------| 
G|----------------------------------------0--2----------0--2----------------| 
D|-------0--2----------0--2------------3-------------3----------------------| 
A|----3-------------3---------------3-------------3-------------------------| 
E|-3-------------3----------------------------------------------------------| 
                                        Still tangled up in you 
  
e|--------------------------------------------------------x-----------------| 
B|--------------------------------------------------------1-----------------| 
G|----------------------------------------0--2------------2-----------------| 
D|-------0--2----------0--2------------3------------------2-----------------| 
A|----3-------------3---------------3---------------------------------------| 
E|-3-------------3----------------------------------------------------------| 
  
  
  
2nd Verse 4x   
e|--------------------------------------------------------------------------| 
B|--------------------------------------------------------------------------| 
G|----------------------------------------0--2----------0--2----------------| 
D|-------0--2----------0--2------------3-------------3----------------------| 
A|----3-------------3---------------3-------------3-------------------------| 
E|-3-------------3----------------------------------------------------------| 
  
You're the fire                 that warms me when I'm cold 
You're the hand I have to hold          as I grow old 
You're the shore                when I am lost at sea 
You're the only thing that   I like about me 
  
Chorus 2x 
e|--------------------------------------------0-------------0---------------| 
B|---------1--0----------0--1--------------------1--------------------------| 
G|------2-------------2-----------------0--2--------------------------------| 
D|---2-------------2-----------------3------------------3-------------------| 
A|--------------------------------3------------------3----------------------| 
E|--------------------------------------------------------------------------| 
In this world   where nothing else is true 
Here I am still tangled up in you       I'm still tangled up in you 
  
Bridge: (Hard to pick up the actual notes on the recording.  This is the way I play it.) 
e|-----------------------------------------0-----------0--------------------| 
B|--------------------------------------------1-----------1-----------------| 
G|----------0--2---------------------------------------------2--0-----------| 
D|-------3-------------0--2------------3---------------------------3--------| 
A|----3-------------3---------------3---------------------------------3-----| 
E|---------------3----------------------------------------------------------| 
  
How long has it been    since this story line began 
And I hope it never ends        and goes like this forever 

Chorus 
e|--------------------------------------------0-----------------0-----------| 
B|---------1--0--------0--1----------------------1-----------------1--------| 
G|------2-------------2-----------------0--2--------------0--2--------0-----| 
D|---2-------------2-----------------3-----------------3----------------3---| 
A|--------------------------------3-----------------3---------------------3-| 
E|--------------------------------------------------------------------------| 
  
In this world           where nothing else is true 
Here I am still tangled up in you               tangled up in you 

3x 
e|--------------------------------------------------------------------------| 
B|--------------------------------------------------------------------------| 
G|----------------------------------------0--2----------0--2----------------| 
D|-------0--2----------0--2------------3-------------3----------------------| 
A|----3-------------3---------------3-------------3-------------------------| 
E|-3-------------3----------------------------------------------------------| 
  
I'm still tangled up in you 
I'm still tangled up in you 
I'm still tangled up in you 
	  

Search Paypal
auto scroll beats size up size down change color hide chords drawings
tab show chords e-chords YouTube Clip e-chords hide all tabs e-chords go to top tab