A Life Once Lost

Rehashed

A Life Once Lost

tabs

by  CARLLUZ

save to print version add songbook text version e-mail correct tuner
chordsukulelecavacokeyboardtabbassdrumsharmonicaflute Guitar Pro
close

there isn't a video lesson for this song

chords

Rehashed

	  		

Intro/Outro 

 
e --------------------------------------------------------------| 
B --------------------------------------------------------------| 
G --------------------------------------------------------------| 
D -----2-2-----2-2-----2-2--------------2-2-----2-2-----2-2-----| 
A -----1-1-----1-1-----1-1-0-0-0-0------1-1-----1-1-----1-1-0-0-| 
D -000-----000-----000-----0-0-0-0--000-----000-----000-----0-0-| 
 
   ...     ...     ...     . . . .  ...     ...     ...     . . 

 
e -----------------------------------------------------------| 
B -----------------------------------------------------------| 
G -----------------------------------------------------------| 
D -----2-2-----2-2-----2-2---------2-2-----2-2-----2-2-------| 
A -----1-1-----1-1-----1-1-0-0-----1-1-----1-1-----1-1-0-0-0-| 
D -000-----000-----000-----0-0-000-----000-----000-----0-0-0-| 
 
   ...     ...     ...     . . ...     ...     ...     . . . 

Intro X 2 

Verse 

 
e -----------------------                  e --------------------------| 
B -----------------------                  B --------------------------| 
G -4-----4-------3--6----                  G -6-----6----5-------------| 
D -4-----4--1-2--3--6--3- Three times then D -6-----6----5--4--5--1----| 
A -2-----2--1-2--1--4--3-                  A -4-----4----3--4--5--1----| 
D ---000----1-2--------3-                  D ---000---00----4--5--1----| 
 
     ...                                        ...   .. 

Reapeat the verse as necessary. 

Chorus 

 
e --------------------------------------------------------| 
B --------------------------------------------------------| 
G -5/7-----5/7---5/7-8------------------------------------| 
D -5/7-----5/7---5/7-8-1-----------------1----------------| 
A -3/5-----3/5---3/5-6-1-----------------1----------------|  this part two 
D -----0-0-----0-------1---7-7-7-5-7-5-0-1--0-0-0-0-0-0-0-|  times, then... 
 
       . .     .           . . . . . . . .  . . . . . . . 

 
e ----------------------------------------------------------| 
B ----------------------------------------------------------| 
G ----------------------------------------------------------| 
D -0--0-0-0--0-0-7--0-7/8-7/10--0--0-0-0--0-0-8--0-6-5-7/10-| 
A -0--0-0-0--0-0-7--0-7/8-------0--0-0-0--0-0-8--0-6-5------| 
D -0--0-0-0--0-0-5--0-5/6-------0--0-0-0--0-0-6--0-4-3------| 
 
   .  . . .  . .    .           .  . . .  . .    . 

Repeat as necessary. 

Wierd Bridge Midway Thingie 

 
e ------------------------| 
B ------------------------| 
G ------------------------| 
D ------------------------|  Three times I think. 
A -8-------6----------7---| 
D ---0--0----5---0--1---6-| 
 

So thats pretty much it, just rearrange the parts where needed and there you go. 
		  

See also:

tabs Simon & Garfunkel - Sounds of silence tabs The Strokes - Juicebox tabs John Mayer - Belief tabs Guns N' Roses - Sweet Child o' mine tabs Guns N' Roses - November Rain tabs Foo Fighters - Everlong (acústico)
e-chords

Other versions:

tabs A Life Once Lost - Rehashed
auto scroll beats size up size down change color hide chords drawings
tab show chords e-chords YouTube Clip e-chords hide all tabs e-chords go to top tab

share