A Life Once Lost

Firewater Joyride

A Life Once Lost

tabs

by  CARLLUZ

save to print version add songbook text version e-mail correct tuner
chordsukulelecavacokeyboardtabbassdrumsharmonicaflute Guitar Pro
close

there isn't a video lesson for this song

chords

Firewater Joyride

	  		

Intro/MAin Riff 
 
e|-----------------------------------------------------------| 
B|-----------------------------------------------------------| 
G|-----------------------------------------------------------| 
D|-----------------------------------------------------5-3---| 
A|-----------------------------------------------------5-3---| 
D|19/0-03p0-05p0-06p0-07p0-8-12~-15-12-10-12(H)-7-9(H)-5-3-0-| 
 

MAin Riff 
 
e|-------------------------------------------------------| 
B|-------------------------------------------------------| 
G|-------------------------------------------------------| 
D|-------------------------------------------------5-3---| 
A|-------------------------------------------------5-3---| 
D|-03p0-05p0-06p0-07p0-8-12~-15-12-10-12(H)-7-9(H)-5-3-0-| 
 

 
e|-------------------------------------------------------| 
B|-------------------------------------------------------| 
G|-------------------------------------------------------| 
D|-------------------------------------------------5-3---| 
A|-------------------------------------------------5-3---| 
D|-0-0-0-0-03-05-06-07-8-12~-15-12-10-12(H)-7-9(H)-5-3-0-| 
 
P...........  .  .  .   

 
e|-------------------------------------------------| 
B|-------------------------------------------------| 
G|-------------------------------------------------| 
D|-------------------------------------------------| 
A|-------------------------------------------------| 
D|-03p0-05p0-06p0-07p0-8-12~-15-12-10-12(H)-7-9(H)-| 
 
                                                   
Pre Chorus 
e|-------------------------| 
B|-------------------------| 
G|-------------------------| 
D|5-----555555-3-------7~PH| 
A|5-----555555-3-----------| 
D|5-0-0-555555-3-0-0-0-----|   
   p...          ..... 
(I Dont know whAt the ActuAl note is for the hArmonic, But 7 sounDs GooD) 
Chorus  
 
e|---------------------------------------------------------| 
B|---------------------------------------------------------| 
G|---------------------------------------------------------| 
D|-------------------------------------------------------3-| 
A|-------------------------------------------------------3-| 
D|0-0-0-17p0-19-0-0-0-17p0-17-0-0-0-17p0-17-15~0-0-0-0-0-3-| 
 
P......         .....         .....            ......... 

 
e|-----------------------------------------------------------| 
B|-----------------------------------------------------------| 
G|-----------------------------------------------------------| 
D|---------------------------------------------------------0-| 
A|-------------------------------------------------6-5-3-0-0-| 
D|0-0-0-17p0-19-0-0-0-17p0-17-0-0-0-17p0-17-15~0-0---------0-| 
 
P......         .....         .....            ... 


 
e|---------------------------------------------------------| 
B|---------------------------------------------------------| 
G|---------------------------------------------------------| 
D|-------------------------------------------------------3-| 
A|-------------------------------------------------------3-| 
D|0-0-0-17p0-19-0-0-0-17p0-17-0-0-0-17p0-17-15~0-0-0-0-0-3-| 
 
P......         .....         .....            ......... 


e|-----------------------------------------------------------| 
B|-----------------------------------------------------------| 
G|-----------------------------------------------------------| 
D|---------------------------------------------------------0-| 
A|-------------------------------------------------6-5-3-0-0-| 
D|0-0-0-17p0-19-0-0-0-17p0-17-0-0-0-17p0-17-15~0-0---------0-|  
P......         .....         .....            ... 

MAin Riff 
e|-------------------------------------------------------| 
B|-------------------------------------------------------| 
G|-------------------------------------------------------| 
D|-------------------------------------------------5-3---| 
A|-------------------------------------------------5-3---| 
D|-03p0-05p0-06p0-07p0-8-12~-15-12-10-12(H)-7-9(H)-5-3-0-|  
(PlAy sAme MAin Riff Structure As ABove) 

Presolo 
 
|--------------------------------| 
|--------------------------------| 
|--------------------------------| 
|--------------------------3-3-0-| 
|--------------------------3-3-0-| 
|-15-17-15-18-17--15-10-12-3-3-0-| 
 


 
|----------------------------------------------------| 
|----------------------------------------------------| 
|----------------------------------------------------| 
|--------------------------3-3-0-5-5-0-3-3-0-3p0-3p0-| 
|--------------------------3-3-0-5-5-0-3-3-0-3p0-3p0-| 
|-15-17-15-18-17--15-10-12-3-3-0-5-5-0-3-3-0-3p0-3p0-| 
 


P= Pull off. 
H= HAmmer on.  
/= SliDe 
~= ViBrAto  
PH= Pinch HArmonic 
B= BenD 
P(..)= PAlm Mute 
()= optionAl  
		  

See also:

tabs Simon & Garfunkel - Sounds of silence tabs The Strokes - Juicebox tabs John Mayer - Belief tabs Guns N' Roses - Sweet Child o' mine tabs Guns N' Roses - November Rain tabs Foo Fighters - Everlong (acústico)
e-chords

Other versions:

tabs A Life Once Lost - Firewater Joyride
auto scroll beats size up size down change color hide chords drawings
tab show chords e-chords YouTube Clip e-chords hide all tabs e-chords go to top tab

share