A-Ha

Analogue (All I Want)

A-Ha

tabs Expert expert

by  AUTOBUCKIE

save to print version add songbook text version e-mail correct tuner
chordsukulelecavacokeyboardtabbassdrumsharmonicaflute Guitar Pro
close

there isn't a video lesson for this song

chords

Analogue (All I Want)

	  		. 

Intro/Verse: 

e|------------------------------------------------------------------|  
B|------------------------------------------------------------------|  
G|------------------------------------------------------------------|  
D|------------------------------------------------------------------|  
A|-----4-4-4-4--5-5-5-5--4-4-4-4--4-4-4-4---------------------------|  
E|-----2-2-2-2--2-2-2-2--0-0-0-0--4-4-4-4---------------------------|  

Chorus: 

All I want you to know... 
      E   A   D 
e|----0---0---2-----------------------------------------------------|  
B|----0---2---3-----------------------------------------------------|  
G|----1---2---2-----------------------------------------------------|  
D|----2---2---0-----------------------------------------------------|  
A|----2---0---------------------------------------------------------|  
E|----0-------------------------------------------------------------|  

...Is the time to show you how I feel..... 

      E   A     E   A   D   E   F#m 
e|----0---0-----0---0---2---0---2-----------------------------------|  
B|----0---2-----0---2---3---0---2-----------------------------------|  
G|----1---2-----1---2---2---1---2-----------------------------------|  
D|----2---2-----2---2---0---2---4-----------------------------------|  
A|----2---0-----2---0-------2---4-----------------------------------|  
E|----0---------0-----------0---2-----------------------------------|  

Leading into 'Lay down your sense of pride...' 

      E   A   D   E   A 
e|----0---0---2---0---0---------------------------------------------|  
B|----0---2---3---0---2---------------------------------------------|  
G|----1---2---2---1---2---------------------------------------------|  
D|----2---2---0---2---2---------------------------------------------|  
A|----2---0-------2---0---------------------------------------------|  
E|----0-----------0-------------------------------------------------|  

Lay down your sense of pride, trampled once too often...      
      A   F#m D    E   D 
e|----0---2---2----0---2--------------------------------------------|  
B|----2---2---3----0---3--------------------------------------------|  
G|----2---2---2----1---2--------------------------------------------|  
D|----2---4---0----2---0--------------------------------------------|  
A|----0---4--------2------------------------------------------------|  
E|--------2--------0------------------------------------------------|  

Ending: 

All I need is the time... 
      E   A   Bm  A 
e|----0---0---2---0-------------------------------------------------|  
B|----0---2---3---2-------------------------------------------------|  
G|----1---2---4---2-------------------------------------------------|  
D|----2---2---4---2-------------------------------------------------|  
A|----2---0---2---0-------------------------------------------------|  
E|----0-------------------------------------------------------------|  



		  

Full key step upFull key step up
Half key step upHalf key step up
Half key step downHalf key step down
Full key step downFull key step down
hide glossary

See also:

tabs Kings Of Convenience - Failure tabs Kings Of Convenience - Singing Softly To Me tabs Kings Of Convenience - Winning a battle losing the war tabs Kings Of Convenience - Know how tabs Ane Brun - A Temporary Dive tabs Tennis - Cape Dory
e-chords

Other versions:

tabs A-Ha - Analogue (All I Want)
auto scroll beats size up size down change color hide chords drawings
tab show chords e-chords YouTube Clip e-chords hide all tabs e-chords go to top tab

share