A Great Big Pile Of Leaves

We Don't Need Our Heads

A Great Big Pile Of Leaves

tabs

by  BRUNBLAZKOWSKI

save to print version add songbook text version e-mail correct tuner
chordsukulelecavacokeyboardtabbassdrumsharmonicaflute Guitar Pro
close

there isn't a video lesson for this song

chords

We Don't Need Our Heads

	  		Guitar 1 
(0:00)x2 - Light Distortion 
e|--------------------------------|--------------------------------| 
B|--------------------------------|--------------------------------| 
G|13--13--13--13--13--13--13--11--|11--11--11--11--11--11--11--1111| 
D|x---x---x---x---x---x---x---x---|x---x---x---x---x---x---x---x-x-| 
A|11--11--11--11--11--11--11--9---|9---9---9---9---9---9---9---9-9-| 
E|0---0---0---0---0---0---0---0---|0---0---0---0---0---0---0---0-0-| 

e|--------------------------------|--------------------------------| 
B|--------------------------------|--------------------------------| 
G|13--13--13--13--13--13--13--14--|14--14--14--13--13--13--13--1313| 
D|x---x---x---x---x---x---x---x---|x---x---x---x---x---x---x---x-x-| 
A|11--11--11--11--11--11--11--12--|12--12--12--11--11--11--11--1111| 
E|0---0---0---0---0---0---0---0---|0---0---0---0---0---0---0---0-0-| 

e|--------------------------------|--------------------------------| 
B|--------------------------------|--------------------------------| 
G|13--13--13--13--13--13--13--11--|11--11--11--11--11--11--11--1111| 
D|11--11--11--11--11--11--11--9---|9---9---9---9---9---9---9---9-9-| 
A|0---0---0---0---0---0---0---0---|0---0---0---0---0---0---0---0-0-| 
E|--------------------------------|--------------------------------| 

e|--------------------------------|--------------------------------| 
B|--------------------------------|--------------------------------| 
G|13--13--13--13--13--13------14--|14--14--14--13--13--13--13--1313| 
D|11--11--11--11--11--11------11--|11--11--11--11--11--11--11--1111| 
A|0---0---0---0---0---0-------0---|0---0---0---0---0---0---0---0-0-| 
E|--------------------------------|--------------------------------| 


(0:28)x2 - Light Distortion 
e|--------x---------------x-------|--------x-----------------------| 
B|--------x---------------x-------|--------x-----------------------| 
G|13------x---------------x-------|--------x-----------13------13--| 
D|x-------x---------------x-------|--------x-----------x-------x---| 
A|11------x---------------x-------|--------x-----------11------11--| 
E|0-------x---------------x-------|--------x-----------0-------0---| 

e|--------x---------------x-------|--------------------------------| 
B|--------x---------------x-------|--------------------------------| 
G|--------x---------------x-------|--------13--14--14--13--13--1313| 
D|--------x---------------x-------|--------x---x---x---x---x---x-x-| 
A|--------x---------------x-------|--------11-/12--12-\11--11--1111| 
E|--------x---------------x-------|--------0---0---0---0---0---0-0-| 

e|--------x---------------x-------|--------x-----------------------| 
B|--------x---------------x-------|--------x-----------------------| 
G|13------x---------------x-------|--------x-----------11------11-/| 
D|11------x---------------x-------|--------x-----------9-------9--/| 
A|0-------x---------------x-------|--------x-----------0-------0---| 
E|--------x---------------x-------|--------x-----------------------| 

e|--------x---------------x-------|--------------------------------| 
B|--------x---------------x-------|--------------------------------| 
G|13------x---------------x---1313|14--14--14--141413--13--13--1313| 
D|11------x---------------x---1111|11--11--11--111111--11--11--1111| 
A|0-------x---------------x---0-0-|0---0---0---0-0-0---0---0---0-0-| 
E|--------x---------------x-------|--------------------------------| 


(0:56)x2 - Same as (0:00) 


(1:24)x2 - Same as (0:28) 


(1:52)x2 - Same as (0:00) 


(2:20)x3 - Clean, Reverb 
e|--------------------------------|--------------------------------| 
B|----------------12--------------|--------12------12--14--12------| 
G|--------13----------13----------|13----------13--------------13--| 
D|--------------------------------|--------------------------------| 
A|----11----------------------11--|--------------------------------| 
E|0-----------0-----------0-------|----0---------------------------|x2 

e|--------------------------------|--------------------------------| 
B|----------------12--------------|--------12------12--14--12------| 
G|--------13----------13----------|13----------13--------------13--| 
D|----11----------------------11--|--------------------------------| 
A|0-----------0-----------0-------|----0---------------------------| 
E|--------------------------------|--------------------------------|x2 


(3:02)x2 - Distortion 
e|--------------------------------|--------------------------------| 
B|12--12--12--12--12------12--12--|12--12--12------12--12--12--1212| 
G|13--13--13--13--13------13--13--|13--13--13------13--13--13--1313| 
D|x---x---x---x---x-------x---x---|x---x---x-------x---x---x---x-x-| 
A|11--11--11--11--11------11--11--|11--11--11------11--11--11--1111| 
E|0---0---0---0---0-------0---0---|0---0---0-------0---0---0---0-0-|x2 

e|--------------------------------|--------------------------------| 
B|12--12--12--12--12------12--12--|12--12--12----(12--12--12--1212)| 
G|13--13--13--13--13------13--13--|13--13--13----(13--13--13--1313)| 
D|11--11--11--11--11------11--11--|11--11--11----(11--11--11--1111)| 
A|0---0---0---0---0-------0---0---|0---0---0-----(0---0---0---0-0-)| 
E|--------------------------------|--------------------------------|x2 
Don't play parentheses on fourth repeat.  


(3:30)x2 - Same as (0:00) 


(4:00) - Distortion 
e|--------------------------------|--------------------------------| 
B|12--12--12--12--12------12--12--|12--12--12------12--12--12--1212| 
G|13--13--13--13--13------13--13--|13--13--13------13--13--13--1313| 
D|x---x---x---x---x-------x---x---|x---x---x-------x---x---x---x-x-| 
A|11--11--11--11--11------11--11--|11--11--11------11--11--11--1111| 
E|0---0---0---0---0-------0---0---|0---0---0-------0---0---0---0-0-| 

e|--------------------------------|--------------------------------| 
B|12--12--12--12--12------12--12--|12--12--12----------------------| 
G|13--13--13--13--13------13--13--|13--13--13----------------------| 
D|x---x---x---x---x-------x---x---|x---x---x-----------------------| 
A|11--11--11--11--11------11--11--|11--11--11----------------------| 
E|0---0---0---0---0-------0---0---|0---0---0-----------------------| 




Guitar 2 
(0:00)x2 - Light Distortion, Reverb 
e|--------------------------------|--------------------------------| 
B|---------------------------/12--|--------------12----------------| 
G|--------------------------------|13--------11------13--------11--| 
D|--------------------------------|--------------------------------| 
A|11------------------------------|--------------------------------| 
E|--------------------------------|--------------------------------| 

e|--------------------------------|--------------------------------| 
B|---------------------------/12--|--------------12----------------| 
G|9~------------------------------|13--------11------13--------11--| 
D|--------------------------------|--------------------------------| 
A|--------------------------------|--------------------------------| 
E|--------------------------------|--------------------------------| 

e|--------------------------------|--------------------------------| 
B|--------------------------------|--------------------------------| 
G|13--11--9-----------------------|---------------------------13-13| 
D|------------11------9-------11--|9-------------------------------| 
A|--------------------------------|----11--------------------------| 
E|--------------------------------|--------------------------------| 

e|--------------------------------|--------------------------------| 
B|--------------------------------|--------------------------------| 
G|13--11--9-----------------------|--------------------------------| 
D|------------11------9-------11--|11^ 12----------9---------------| 
A|--------------------------------|--------------------------------| 
E|--------------------------------|--------------------------------| 


(0:28)x2 - Light Distortion, Reverb 
e|--------------------------------|--------------------------------| 
B|--------------------12------14--|--12----------12------12--------| 
G|-----------/13------------------|----------13------13------13----| 
D|--------------------------------|--------------------------------| 
A|11------------------------------|--------------------------------| 
E|--------------------------------|--------------------------------| 

e|--------------------------------|--------------------------------| 
B|--------------------12-----14-14|14-12-12------12------12--------| 
G|-----------/13------------------|----------13------13------13----| 
D|--------------------------------|--------------------------------| 
A|--------------------------------|--------------------------------| 
E|--------------------------------|--------------------------------| 

e|--------------------------------|--------------------------------| 
B|----------------12--16--12------|12--17--16------12--16--12------| 
G|-----------/13--------------13--|------------13--------------13--| 
D|--------------------------------|--------------------------------| 
A|--------------------------------|--------------------------------| 
E|--------------------------------|--------------------------------| 

e|--------------------------------|--------------------------------| 
B|--------------------12-----14-14|14-12-12------12------12--------| 
G|-----------/13------------------|----------13------13------13----| 
D|--------------------------------|--------------------------------| 
A|--------------------------------|--------------------------------| 
E|--------------------------------|--------------------------------| 


(0:56) - No Guitar 2. 


(1:24)x2 - Same as (0:28) 


(1:52) - No Guitar 2. 


(2:20) - Reverb 
e|--------------------------------|--------------------------------| 
B|--------------------------------|--------------------------------| 
G|--------9---11^11.5r11----------|9\------------------------------| 
D|9---11--------------------------|--------------------------------| 
A|--------------------------------|--------------------------------| 
E|--------------------------------|--------------------------------| 

e|--------------------------------|--------------------------------| 
B|--------------------------------|--------------------------------| 
G|--------9---8^9r8------6--------|9\------------------------------| 
D|9---11--------------------------|--------------------------------| 
A|--------------------------------|--------------------------------| 
E|--------------------------------|--------------------------------| 

e|--------------------------------|--------------------------------| 
B|--------------------------------|--------------------------------| 
G|--------9---11^11.5r11------9\--|--------------------------------| 
D|9---11--------------------------|--------------------------------| 
A|--------------------------------|--------------------------------| 
E|--------------------------------|--------------------------------| 

e|--------------------------------|--------------------------------| 
B|--------------------------------|--------------------------------| 
G|--------9---8^9r8---6---4-------|4^4.5r4-------------------------| 
D|9---11----------------------6---|--------------------------------| 
A|--------------------------------|--------------------------------| 
E|--------------------------------|--------------------------------| 

e|--------------------------------|--------------------------------| 
B|--------------------------------|--------------------------------| 
G|--------9---11^11.5r11-11-11-11-|9\------------------------------| 
D|9---11--------------------------|--------------------------------| 
A|--------------------------------|--------------------------------| 
E|--------------------------------|--------------------------------| 

e|--------------------------------|--------------------------------| 
B|--------------------------------|--------------------------------| 
G|--------9---8^9r8---6---4-------|4^4.5r4-------------------------| 
D|9---11----------------------6---|--------------------------------| 
A|--------------------------------|--------------------------------| 
E|--------------------------------|--------------------------------| 


(3:02) - Same as (0:00) 


(3:30) - No Guitar 2. 


(4:00) - Same as (0:00) 
		  

auto scroll beats size up size down change color hide chords drawings
tab show chords e-chords YouTube Clip e-chords hide all tabs e-chords go to top tab

share