A Great Big Pile Of Leaves

Drought Of Snow

A Great Big Pile Of Leaves

tabs

by  TAMAMOREIRA

save to print version add songbook text version e-mail correct tuner
chordsukulelecavacokeyboardtabbassdrumsharmonicaflute Guitar Pro
close

there isn't a video lesson for this song

chords

Drought Of Snow

	  		

 |<*Intro*>| 

e|---------------------0-------0--------------------------------------------| 
B|-----1-------1-------1--------1-1----1-------1-------1---1p0--------1p0---| 
G|-----0--------0-0----2------2--2-----0--------0-0----0------0--0-------0--| 
D|-----2------2--2-3----------3--------2------2--2-------------0-----0------| 
A|-3----------3--------------------3----------3-------------------0h2-------| 
E|-------------------------------------------------3-3---3------------------| 

 |<*Verse(1)*>| 

e|---------------------0-------0--------------------------------------------| 
B|-----1-------1-------1--------1-1----1-------1-------1---1p0--------1p0---| 
G|-----0--------0-0----2------2--2-----0--------0-0----0------0--0-------0--| 
D|-----2------2--2-3----------3--------2------2--2-------------0-----0------| 
A|-3----------3--------------------3----------3-------------------0h2-------| 
E|-------------------------------------------------3-3---3------------------| 


e|---------------------0-3-----0--------------------------------------------| 
B|-----1-------1-------1-1------1-1----1-------1-------1---1p0--------1p0---| 
G|-----0--------0-0----2-2----2--2-----0--------0-0----0------0--0-------0--| 
D|-----2------2--2-3----------3--------2------2--2-------------0-----0------| 
A|-3----------3--------------------3----------3-------------------0h2-------| 
E|-------------------------------------------------3-3---3------------------| 

 |<*Chorus(1)*>| 

e|---------------------------------------3--3--3--3--3-3-3-3-3-3-3-3-3-3-3-3| 
B|-1--1--1--1--1-1-1-1-1-1-1-1-1-1-1-1---1--1--1--1--1-1-1-1-1-1-1-1-1-1-1-1| 
G|-0--0--0--0--0-0-0-0-0-0-0-0-0-0-0-0---2--2--2--2--2-2-2-2-2-2-2-2-2-2-2-2| 
D|-2--2--2--2--2-2-2-2-2-2-2-2-2-2-2-2---3--3--3--3--3-3-3-3-3-3-3-3-3-3-3-3| 
A|-3--3--3--3--3-3-3-3-3-3-3-3-3-3-3-3--------------------------------------| 
E|--------------------------------------------------------------------------| 

e|--------------------------------------------------------------------------| 
B|-1--1--1--1--1-1-1-1-1-1-1-1-1-1-1-1---1-----1-----1p00-0-0-0-0h1-1-1-1-1-| 
G|-0--0--0--0--0-0-0-0-0-0-0-0-0-0-0-0---0-----0-----0--0-0-0-0-0---0-0-0-0-| 
D|-2--2--2--2--2-2-2-2-2-2-2-2-2-2-2-2---0-----0-----0--0-0-0-0-0---0-0-0-0-| 
A|-3--3--3--3--3-3-3-3-3-3-3-3-3-3-3-3---2-(2)-2-(2)-2----------------------| 
E|---------------------------------------3--3--3--3--3----------------------| 

 |<*Verse(2)*>| 

e|---------------------0-------0--------------------------------------------| 
B|-----1-------1-------1--------1-1----1-------1-------1---1p0--------1p0---| 
G|-----0--------0-0----2------2--2-----0--------0-0----0------0--0-------0--| 
D|-----2------2--2-3----------3--------2------2--2-------------0-----0------| 
A|-3----------3--------------------3----------3-------------------0h2-------| 
E|-------------------------------------------------3-3---3------------------| 

e|---------------------0-3-----30-0-----------------------------------------| 
B|-----1-------1-------1-1-------3-----1-11----1-------1---1p0--------1p0---| 
G|-----0--------0-0----2-2----2--------0-00-----0-0----0------0--0-------0--| 
D|-----2------2--2-3----------3--------2-22---2--2-------------0-----0------| 
A|-3----------3--------------------3----------3-------------------0h2-------| 
E|-------------------------------------------------3-3---3------------------| 

 |<*Chorus(2)*>| x2 

e|---------------------------------------3--3--3--3--3-3-3-3-3-3-3-3-3-3-3-3| 
B|-1--1--1--1--1-1-1-1-1-1-1-1-1-1-1-1---1--1--1--1--1-1-1-1-1-1-1-1-1-1-1-1| 
G|-0--0--0--0--0-0-0-0-0-0-0-0-0-0-0-0---2--2--2--2--2-2-2-2-2-2-2-2-2-2-2-2| 
D|-2--2--2--2--2-2-2-2-2-2-2-2-2-2-2-2---3--3--3--3--3-3-3-3-3-3-3-3-3-3-3-3| 
A|-3--3--3--3--3-3-3-3-3-3-3-3-3-3-3-3--------------------------------------| 
E|--------------------------------------------------------------------------| 

e|--------------------------------------------------------------------------| 
B|-1--1--1--1--1-1-1-1-1-1-1-1-1-1-1-1---1-----1-----1p00-0-0-0-0h1-1-1-1-1-| 
G|-0--0--0--0--0-0-0-0-0-0-0-0-0-0-0-0---0-----0-----0--0-0-0-0-0---0-0-0-0-| 
D|-2--2--2--2--2-2-2-2-2-2-2-2-2-2-2-2---0-----0-----0--0-0-0-0-0---0-0-0-0-| 
A|-3--3--3--3--3-3-3-3-3-3-3-3-3-3-3-3---2-(2)-2-(2)-2----------------------| 
E|---------------------------------------3--3--3--3--3----------------------| 

 |<*Bridge*>| x2 

e|-----------------------0---------------------------------------------..|..| 
B|-------1-0-----------1---1---3-1-------1-0---------------------------..|..| 
G|-----0-----0---0---2-------2---------0-----0---0---------------------..|..| 
D|---2---------2---3-----------------2---------2-----0-----0---0-----0-..|..| 
A|-3-------------------------------3-------------------0h2-------0h2---.\-/.| 
E|-------------------------------------------------3---------3---------..V..| 

e|--------------------------------------------------------------------------| 
B|-----------1p0------------------------------------------------------------| 
G|---------------0----------------------------------------------------------| 
D|---0-----0-----------0----------------------------------------------------| 
A|-----0h2---------0h2------------------------------------------------------| 
E|-3------------------------------------------------------------------------| 

 |<*Verse(3)*>| 

e|---------------------0-------0--------------------------------------------| 
B|-----1-------1-------1--------1-1----1-------1-------1---1p0--------1p0---| 
G|-----0--------0-0----2------2--2-----0--------0-0----0------0--0-------0--| 
D|-----2------2--2-3----------3--------2------2--2-------------0-----0------| 
A|-3----------3--------------------3----------3-------------------0h2-------| 
E|-------------------------------------------------3-3---3------------------| 

e|---------------------0-3-----0--0-----------------------------------------| 
B|-----1-------1-------1-1------1------1-11----1-------1---1p0--------1p0---| 
G|-----0--------0-0----2-2----2--2-----0-00-----0-0----0------0--0-------0--| 
D|-----2------2--2-3----------3--------2-22----2--2-------------0-----0-----| 
A|-3----------3--------------------3----------3-------------------0h2-------| 
E|-------------------------------------------------3-3---3------------------| 

 |<*Chorus(3)*>| x2 

e|---------------------------------------3--3--3--3--3-3-3-3-3-3-3-3-3-3-3-3| 
B|-1--1--1--1--1-1-1-1-1-1-1-1-1-1-1-1---1--1--1--1--1-1-1-1-1-1-1-1-1-1-1-1| 
G|-0--0--0--0--0-0-0-0-0-0-0-0-0-0-0-0---2--2--2--2--2-2-2-2-2-2-2-2-2-2-2-2| 
D|-2--2--2--2--2-2-2-2-2-2-2-2-2-2-2-2---3--3--3--3--3-3-3-3-3-3-3-3-3-3-3-3| 
A|-3--3--3--3--3-3-3-3-3-3-3-3-3-3-3-3--------------------------------------| 
E|--------------------------------------------------------------------------| 

e|--------------------------------------------------------------------------| 
B|-1--1--1--1--1-1-1-1-1-1-1-1-1-1-1-1---1-----1-----1p00-0-0-0-0h1-1-1-1-1-| 
G|-0--0--0--0--0-0-0-0-0-0-0-0-0-0-0-0---0-----0-----0--0-0-0-0-0---0-0-0-0-| 
D|-2--2--2--2--2-2-2-2-2-2-2-2-2-2-2-2---0-----0-----0--0-0-0-0-0---0-0-0-0-| 
A|-3--3--3--3--3-3-3-3-3-3-3-3-3-3-3-3---2-(2)-2-(2)-2----------------------| 
E|---------------------------------------3--3--3--3--3----------------------| 

 |<*Outro*>| x2 

e|-------------------------------------------------3-3-3-3-3-3-3-3-3-3-3-3-3| 
B|-1-1-1-1-1-1-1-1-1-1-1-1-1-1-1-1-1-1-1-1-1-1-1-1-1-1-1-1-1-1-1-1-1-1-1-1-1| 
G|-0-0-0-0-0-0-0-0-0-0-0-0-0-0-0-0-0-0-0-0-0-0-0-0-2-2-2-2-2-2-2-2-2-2-2-2-2| 
D|-2-2-2-2-2-2-2-2-2-2-2-2-2-2-2-2-2-2-2-2-2-2-2-2-3-3-3-3-3-3-3-3-3-3-3-3-3| 
A|-3-3-3-3-3-3-3-3-3-3-3-3-3-3-3-3-3-3-3-3-3-3-3-3--------------------------| 
E|--------------------------------------------------------------------------| 

e|-3-3-3-3-3-3-3-3-3-3-3----------------------------------------------------| 
B|-1-1-1-1-1-1-1-1-1-1-1-1-1-1-1-1-1-1-1-1-1-1-1-1-1-1-1-1-1-1-1-1-1-1-1-0-0| 
G|-2-2-2-2-2-2-2-2-2-2-2-0-0-0-0-0-0-0-0-0-0-0-0-0-0-0-0-0-0-0-0-0-0-0-0-0-0| 
D|-3-3-3-3-3-3-3-3-3-3-3-2-2-2-2-2-2-2-2-2-2-2-2-2-2-2-2-2-2-2-2-2-2-2-2-0-0| 
A|-----------------------3-3-3-3-3-3-3-3-3-3-3-3-3-3-3-3-3-3-3-3-3-3-3-3-2-2| 
E|-----------------------------------------------------------------------3-3| 

e|--------------------------------------------------------------------------| 
B|-0-0-0-0-0-0-0-0-0-0-3-3-3-3-3-3-3-3-3-3-3-3------------------------------| 
G|-0-0-0-0-0-0-0-0-0-0-0-0-0-0-0-0-0-0-0-0-0-0------------------------------| 
D|-0-0-0-0-0-0-0-0-0-0-0-0-0-0-0-0-0-0-0-0-0-0------------------------------| 
A|-2-2-2-2-2-2-2-2-2-2-2-2-2-2-2-2-2-2-2-2-2-2------------------------------| 
E|-3-3-3-3-3-3-3-3-3-3-3-3-3-3-3-3-3-3-3-3-3-3------------------------------| 

 |<*Verse(4)*>| 

e|---------------------0-3-----0--0-----------------------------------------| 
B|-----1-------1-------1-1------1------1-11----1-------1---1p0--------1p0---| 
G|-----0--------0-0----2-2----2--2-----0-00-----0-0----0------0--0-------0--| 
D|-----2------2--2-3----------3--------2-22----2--2-------------0-----0-----| 
A|-3----------3--------------------3----------3-------------------0h2-------| 
E|-------------------------------------------------3-3---3------------------| 

e|--------------------------------------------------------------------------| 
B|-----1--------------------------------------------------------------------| 
G|-----0--------------------------------------------------------------------| 
D|-----2--------------------------------------------------------------------| 
A|-3------------------------------------------------------------------------| 
E|--------------------------------------------------------------------------| 
 
		  

See also:

tabs Ben Harper - Amen omen tabs Incubus - Drive tabs Jay-z & Linkin Park - Numb / Encore tabs Jonas Brothers - Gotta Find You (camp Rock) tabs Red Hot Chili Peppers - Soul To Squeeze tabs Red Hot Chili Peppers - Fortune Faded
e-chords

Other versions:

tabs A Great Big Pile Of Leaves - Drought Of Snow
auto scroll beats size up size down change color hide chords drawings
tab show chords e-chords YouTube Clip e-chords hide all tabs e-chords go to top tab

share