A Great Big Pile Of Leaves

Alligator Bop

A Great Big Pile Of Leaves

tabs

by  EDSOOLIVEIRA

save to print version add songbook text version e-mail correct tuner
chordsukulelecavacokeyboardtabbassdrumsharmonicaflute Guitar Pro
close

there isn't a video lesson for this song

chords

Alligator Bop

	  		

Guitar 1 
(0:00)x2 - Clean 
e|0-----------0-----------|0-----------0-----------|------------------------| 
B|0--0-----0-----0-----0--|0--0-----0-----0-----0--|------------------------| 
G|1-----1-----------1-----|1-----1-----------1-----|1-----2-----4-----2--2--| 
D|2-----------------------|2-----------------------|--2-----4-----6---4--4--| 
A|x-----------------------|x-----------------------|------------------------| 
E|0-----------------------|2-----------------------|------------------------| 


(0:24)x4 - Clean 
e|0-----------0-----------|0-----------0-----------|------------------------| 
B|---0-----0-----0-----0--|---0-----0-----0-----0--|------------------------| 
G|------1-----------1-----|------1-----------1-----|1-----2-----4-----2--2--| 
D|------------------------|------------------------|--2-----4-----6---4--4--| 
A|------------------------|------------------------|------------------------| 
E|------------------------|------------------------|------------------------| 


(0:58) - Distortion 
e|0--0--0--0--0--0--0--0--|0-0-0-0-0-0-0-0-0-0-0-0-|------------------------| 
B|0--0--0--0--0--0--0--0--|0-0-0-0-0-0-0-0-0-0-0-0-|------------------------| 
G|1--1--1--1--1--1--1--1--|1-1-1-1-1-1-1-1-1-1-1-1-|1-1---2-2---4-4---2--2--| 
D|2--2--2--2--2--2--2--2--|2-2-2-2-2-2-2-2-2-2-2-2-|2-2---4-4---6-6---4--4--| 
A|x--x--x--x--x--x--x--x--|x-x-x-x-x-x-x-x-x-x-x-x-|0-0---0-0---0-0---0--0--| 
E|0--0--0--0--0--0--0--0--|2-2-2-2-2-2-2-2-2-2-2-2-|------------------------| 


(1:09)x3 - Clean 
e|0-----------0-----------|0-----------0-----------|------------------------| 
B|---0-----0-----0-----0--|---0-----0-----0-----0--|------------------------| 
G|------1-----------1-----|------1-----------1-----|1-----2-----4-----2--2--| 
D|------------------------|------------------------|--2-----4-----6---4--4--| 
A|------------------------|------------------------|------------------------| 
E|------------------------|------------------------|------------------------| 


(1:41)x2 - Distortion 
e|0--0--0--0--0--0--0--0--|0-0-0-0-0-0-0-0-0-0-0-0-|------------------------| 
B|0--0--0--0--0--0--0--0--|0-0-0-0-0-0-0-0-0-0-0-0-|------------------------| 
G|1--1--1--1--1--1--1--1--|1-1-1-1-1-1-1-1-1-1-1-1-|1-1---2-2---4-4---2--2--| 
D|2--2--2--2--2--2--2--2--|2-2-2-2-2-2-2-2-2-2-2-2-|2-2---4-4---6-6---4--4--| 
A|x--x--x--x--x--x--x--x--|x-x-x-x-x-x-x-x-x-x-x-x-|0-0---0-0---0-0---0--0--| 
E|0--0--0--0--0--0--0--0--|2-2-2-2-2-2-2-2-2-2-2-2-|------------------------| 


(2:03)x4 - Clean 
e|------------------------|----------0-------------|------------------------| 
B|------------------------|-----0------0-----------|------------------------| 
G|-----1^2r1----1h2p1-----|---1---1-----1----------|1-1---2-2---4-4---2--2--| 
D|--2-4------2-4-----4---4|--2-----2---------------|2-2---4-4---6-6---4--4--| 
A|---------------------2--|------------------------|0-0---0-0---0-0---0--0--| 
E|0-----------------------|2-----------------------|------------------------| 
On the last repeat, don't play the last measure. 


(2:48)x4 - Distortion 
e|0--0--0--0--0--0--0--0--|0-0-0-0-0-0-0-0-0-0-0-0-|------------------------| 
B|0--0--0--0--0--0--0--0--|0-0-0-0-0-0-0-0-0-0-0-0-|------------------------| 
G|1--1--1--1--1--1--1--1--|1-1-1-1-1-1-1-1-1-1-1-1-|1-1---2-2---4-4---2--2--| 
D|2--2--2--2--2--2--2--2--|2-2-2-2-2-2-2-2-2-2-2-2-|2-2---4-4---6-6---4--4--| 
A|x--x--x--x--x--x--x--x--|x-x-x-x-x-x-x-x-x-x-x-x-|0-0---0-0---0-0---0--0--| 
E|0--0--0--0--0--0--0--0--|2-2-2-2-2-2-2-2-2-2-2-2-|------------------------| 

e|0-----------------------| 
B|0-----------------------| 
G|1-----------------------| 
D|2-----------------------| 
A|x-----------------------| 
E|0-----------------------| 



Guitar 2 
(0:00) - Clean, Reverb 
e|------------------------|------------------------|------------------------| 
B|------------------------|------------------------|------------------------| 
G|13--16------/13--13-----|------------------------|------------------------| 
D|-------------------16-14|16--14--------------14--|6-6---7-7---9-9---7--7--| 
A|------------------------|-------16^17r16--/16--14|0-0---0-0---0-0---0--0--| 
E|------------------------|------------------------|------------------------| 

There are very slight variations on the pentatonic scale but this is the main riff. 
e|------------------------|------------------------|-------------------------| 
B|------14----------------|------------------------|-------------------------| 
G|/13-16--16-13h14p13-----|------------------------|------------------------9| 
D|-------------------16p14|16--14-----------14---14|6-6---7-7---9-9---7-9h11-| 
A|------------------------|--------16---/16----16--|0-0---0-0---0-0---0-0----| 
E|------------------------|------------------------|-------------------------|x4 


(0:58) - Distortion 
e|------------------------|------------------------|------------------------| 
B|------------------------|--Elevens---------------|------------------------| 
G|9--9--9--9--9--9--9--9--|1111111111116-6-6-9-9-9-|4-4---6-6---9-9---6--6--| 
D|x--x--x--x--x--x--x--x--|x-x-x-x-x-x-x-x-x-x-x-x-|x-x---x-x---x-x---x--x--| 
A|7--7--7--7--7--7--7--7--|9-9-9-9-9-9-4-4-4-7-7-7-|2-2---4-4---7-7---4--4--| 
E|0--0--0--0--0--0--0--0--|------------------------|------------------------| 


(1:09)x3 - Clean, Reverb 
e|------------------------|------------------------|-------------------------| 
B|------14----------------|------------------------|-------------------------| 
G|/13-16--16-13h14p13-----|------------------------|------------------------9| 
D|-------------------16p14|16--14-----------14---14|6-6---7-7---9-9---7-9h11-| 
A|------------------------|--------16---/16----16--|0-0---0-0---0-0---0-0----| 
E|------------------------|------------------------|-------------------------| 


(1:41) - Distortion 
e|------------------------|------------------------|------------------------| 
B|------------------------|--Elevens---------------|------------------------| 
G|9--9--9--9--9--9--9--9--|1111111111116-6-6-9-9-9-|4-4---6-6---9-9---6--6--| 
D|x--x--x--x--x--x--x--x--|x-x-x-x-x-x-x-x-x-x-x-x-|x-x---x-x---x-x---x--x--| 
A|7--7--7--7--7--7--7--7--|9-9-9-9-9-9-4-4-4-7-7-7-|2-2---4-4---7-7---4--4--| 
E|0--0--0--0--0--0--0--0--|------------------------|------------------------| 

e|------------------------|------------------------|------------------------| 
B|------------------------|------------------------|------------------------| 
G|13-13-13-16-16-16-16-16-|13-13-13-11-11-11-11-11-|4-4---6-6---9-9---6--6--| 
D|x--x--x--x--x--x--x--x--|x--x--x--x--x--x--x--x--|x-x---x-x---x-x---x--x--| 
A|11-11-11-14-14-14-14-14-|11-11-11-9--9--9--9--9--|2-2---4-4---7-7---4--4--| 
E|0--0--0--0--0--0--0--0--|------------------------|------------------------| 


(2:03) - Clean, Heavy Reverb 
e|------------------------|------------------------|------------------------| 
B|------------------------|-----12~----------------|------------------------| 
G|13^14r13~---------------|11~----------------11---|------------------------| 
D|------------------------|------------------------|------------------------| 
A|------------------------|------------------------|------------------------| 
E|------------------------|------------------------|------------------------| 

e|------------------------|------------------------|------------------------| 
B|------------------------|-----12~----------------|----------------/14--12-| 
G|13^14r13~---------------|11~----------------11\--|------------------------| 
D|------------------------|------------------------|------------------------| 
A|------------------------|------------------------|------------------------| 
E|------------------------|------------------------|------------------------|x2 

e|------------------------|------------------------|------------------------| 
B|------------------------|-----12~----------------|------------------------| 
G|13^14r13~---------------|11~----------------11---|------------------------| 
D|------------------------|------------------------|------------------------| 
A|------------------------|------------------------|------------------------| 
E|------------------------|------------------------|------------------------| 


(2:48) - Distortion 
e|------------------------|------------------------|------------------------| 
B|------------------------|--Elevens---------------|------------------------| 
G|9--9--9--9--9--9--9--9--|1111111111116-6-6-9-9-9-|4-4---6-6---9-9---6--6--| 
D|x--x--x--x--x--x--x--x--|x-x-x-x-x-x-x-x-x-x-x-x-|x-x---x-x---x-x---x--x--| 
A|7--7--7--7--7--7--7--7--|9-9-9-9-9-9-4-4-4-7-7-7-|2-2---4-4---7-7---4--4--| 
E|0--0--0--0--0--0--0--0--|------------------------|------------------------| 

e|------------------------|------------------------|------------------------| 
B|------------------------|------------------------|------------------------| 
G|13-13-13-16-16-16-16-16-|13-13-13-11-11-11-11-11-|9-9---1111--1313--11-11-| 
D|x--x--x--x--x--x--x--x--|x--x--x--x--x--x--x--x--|x-x---x-x---x-x---x--x--| 
A|11-11-11-14-14-14-14-14-|11-11-11-9--9--9--9--9--|7-7---9-9---1111--9--9--| 
E|0--0--0--0--0--0--0--0--|------------------------|------------------------| 


(3:10) - Distortion 
e|------------------------|------------------------|------------------------| 
B|------------------------|------------------------|------------------------| 
G|13-13-13-16-16-18-18-18-|13-13-13-11-11-11-11-11-|9-9---1111--1313--11-11-| 
D|x--x--x--x--x--x--x--x--|x--x--x--x--x--x--x--x--|x-x---x-x---x-x---x--x--| 
A|11-11-11-14-14-16-16-16-|11-11-11-9--9--9--9--9--|7-7---9-9---1111--9--9--| 
E|0--0--0--0--0--0--0--0--|------------------------|------------------------|x2 

e|------------------------| 
B|------------------------| 
G|9-----------------------| 
D|x-----------------------| 
A|7-----------------------| 
E|0-----------------------| 
		  

See also:

tabs Ben Harper - Amen omen tabs Incubus - Drive tabs Jay-z & Linkin Park - Numb / Encore tabs Jonas Brothers - Gotta Find You (camp Rock) tabs Red Hot Chili Peppers - Soul To Squeeze tabs Red Hot Chili Peppers - Fortune Faded
e-chords

Other versions:

tabs A Great Big Pile Of Leaves - Alligator Bop
auto scroll beats size up size down change color hide chords drawings
tab show chords e-chords YouTube Clip e-chords hide all tabs e-chords go to top tab

share