A Flock Of Seagulls

Space Age Love Song

A Flock Of Seagulls

tabs Expert expert

by  VITOCRUZ

save to print version add songbook text version e-mail correct tuner
chordsukulelecavacokeyboardtabbassdrumsharmonicaflute Guitar Pro
close

there isn't a video lesson for this song

chords

Space Age Love Song

Year: 1982 - Album: A Flock of Seagulls

	  		Tabbed by: mack2150. 
Email: [email protected] 

Tuning: standard. 

Pretty repetitive song. 

The synth chords go D, Bm, A, D the whole time. 


e|2-------|  (there is a quick rhythm on these notes...  
B|---3----|          ...just listen to the song) 
G|------2-| 
D|--------| 
A|--------| 
E|--------|(x16) 


e|0-------| 
B|---2----| 
G|------2-| 
D|--------| 
A|--------| 
E|--------|(x15) 

e|2-------|  (there is a quick rhythm on these notes...  
B|---3----|          ...just listen to the song) 
G|------2-| 
D|--------| 
A|--------| 
E|--------|(x32) 

e|0-------| 
B|---2----| 
G|------2-| 
D|--------| 
A|--------| 
E|--------|(x4) 

e|12-------| 
B|---14----| 
G|------14-| 
D|---------| 
A|---------| 
E|---------|(x4) 


e|14-------| 
B|---15----| 
G|------14-| 
D|---------| 
A|---------| 
E|---------|(x8) 

e|2-------|  (there is a quick rhythm on these notes...  
B|---3----|          ...just listen to the song) 
G|------2-| 
D|--------| 
A|--------| 
E|--------|(x16) 

e|0-------| 
B|---2----| 
G|------2-| 
D|--------| 
A|--------| 
E|--------|(x4) 

e|12-------| 
B|---14----| 
G|------14-| 
D|---------| 
A|---------| 
E|---------|(x4) 

e|14-------|14-------|14-------|15-------| 
B|---15----|---15----|---15----|---15----| 
G|------14-|------14-|------14-|------14-| 
D|---------|---------|---------|---------| 
A|---------|---------|---------|---------| 
E|---------|---------|---------|---------| (repeat to end) 
		  

Full key step upFull key step up
Half key step upHalf key step up
Half key step downHalf key step down
Full key step downFull key step down
auto scroll beats size up size down change color hide chords drawings
tab show chords e-chords YouTube Clip e-chords hide all tabs e-chords go to top tab

share