A Day to Remember

You Had Me At Hello

A Day to Remember

tabs Beginner beginner

by  GUSTSILVA

save to print version add songbook text version e-mail correct tuner
chordsukulelecavacokeyboardtabbassdrumsharmonicaflute Guitar Pro
close

there isn't a video lesson for this song

chords

You Had Me At Hello

	  		

Intro (4x) 

Guitar 1 

 
e|------5-------5-------3------2---2---2---------------------------------------| 
B|-----------------------------------------------------------------------------| 
G|-----------------------------------------------------------------------------| 
D|-0-0-----0-0-----0-0-----0-0---0--0------------------------------------------| 
A|-----------------------------------------------------------------------------| 
E|-----------------------------------------------------------------------------| 
 

Guitar 2  just strum these once each or however you like 

 
e|-5---------------3-------2-------------------------------------------------| 
B|-3---------------3-------3-------------------------------------------------| 
G|---------------------------------------------------------------------------| 
D|---------------------------------------------------------------------------| 
A|---------------------------------------------------------------------------| 
E|---------------------------------------------------------------------------| 
 

Verse 

Guitar 1   just keep repeating these chords 

 
e|--0---0---0--------0---0-0--0----------------------------------------------| 
B|--3---3---3--------3---3-3--3----------------------------------------------| 
G|--2---2---2--------2---2-2--2----------------------------------------------| 
D|--0---0---0--------0---0-0--0----------------------------------------------| 
A|--0---2---x--------0---2-4--x----------------------------------------------| 
E|--x---x---3--------x---x-x--3----------------------------------------------| 
 

Guitar 2  keep repeating these chords (emphasis on high e notes) 

 
e|--5---3---5--------0---2-3--5----------------------------------------------| 
B|--3---3---3--------3---3-3--3----------------------------------------------| 
G|--2---2---2--------2---2-2--2----------------------------------------------| 
D|---------------------------------------------------------------------------| 
A|---------------------------------------------------------------------------| 
E|---------------------------------------------------------------------------| 
 

Pre-Chorus 

Guitar 1  (2x)(i dont know the lower notes that go along with the 12 and on           
mess around with them) 

 
e|-10----9--------5--------10--12--14--17--15-14-15-14-----------------------| 
B|-7-----7--------3--------7-------------------------------------------------| 
G|---------------------------------------------------------------------------| 
D|---------------------------------------------------------------------------| 
A|---------------------------------------------------------------------------| 
E|---------------------------------------------------------------------------| 
 

Guitar 2 (2x)   im not sure on this just mess around with these notes maybe 

 
e|---0---2--2h3--3---0--0--0--0------------------------------------------------| 
B|--3---3--3----3---3--3--3--3-------------------------------------------------| 
G|-----------------------------------------------------------------------------| 
D|-0---0--0----0---0--0--0--0--------------------------------------------------| 
A|-----------------------------------------------------------------------------| 
E|-----------------------------------------------------------------------------| 
 

Chorus 

Guitar 1 

 
e|--0--0--0--0---------------------------------------------------------------| 
B|--3--3--3--3---------------------------------------------------------------| 
G|--2--2--2--2---------------------------------------------------------------| 
D|--0--0--0--0---------------------------------------------------------------| 
A|--0--2--x--x---------------------------------------------------------------| 
E|--x--x--2--3---------------------------------------------------------------| 
 

Guitar 2  this is light in the background and the little fill is prob off 

 
e|--5----3-2---5----3-2-----5----3-2-----0---x-x-x-x-x-x-x-------------------| 
B|--3----3-3---3----3-3-----3----3-3-----3---5-3-5-7-3-5-3-------------------| 
G|--2----2-2---2----2-2-----2----2-2-----0---0-0-0-0-0-0-0-------------------| 
D|---------------------------------------------------------------------------| 
A|---------------------------------------------------------------------------| 
E|---------------------------------------------------------------------------| 
 

Post-Chorus 

Guitar 1  either strum or pick these over and over 

 
e|--10--9--7--5--------------------------------------------------------------| 
B|--7---7--5--3--------------------------------------------------------------| 
G|---------------------------------------------------------------------------| 
D|---------------------------------------------------------------------------| 
A|---------------------------------------------------------------------------| 
E|---------------------------------------------------------------------------| 
 

Guitar 2  play this first part repeating over and over until 1:50 

 
e|---0-------------------------------------------------------------------------| 
B|--3--------------------------------------------------------------------------| 
G|-----------------------------------------------------------------------------| 
D|-0---------------------------------------------------------------------------| 
A|-----------------------------------------------------------------------------| 
E|-----------------------------------------------------------------------------| 
 

Guitar 2 - 1:50 

 
e|-0--------0---2---3----5---3---2-------------------------------------------| 
B|-3----3--3---3---3----3---3---3--------------------------------------------| 
G|-2---2---------------------------------------------------------------------| 
D|-0--0--0---0---0----0---0---0----------------------------------------------| 
A|-0-------------------------------------------------------------------------| 
E|-x-------------------------------------------------------------------------| 
 

verse 2 -  Guitar 2 stays the same 


Guitar 1  over and over 

 
e|--0--0--------------0-0-0--------------------------------------------------| 
B|--3--3--------------3-3-3--------------------------------------------------| 
G|--2--2--------------2-2-2--------------------------------------------------| 
D|--0--0--------------0-0-0--------------------------------------------------| 
A|--0--x--------------0-x-x--------------------------------------------------| 
E|--x--3--------------x-2-3--------------------------------------------------| 
 

Chorus stays same 

Bridge 


 
e|-0-0-0---------------------------------------------------------------------| 
B|-3-3-3---------------------------------------------------------------------| 
G|-2-2-2---------------------------------------------------------------------| 
D|-0-0-0---------------------------------------------------------------------| 
A|-x-x-0---------------------------------------------------------------------| 
E|-2-3-x---------------------------------------------------------------------| 
 

Guitar 2   play the notes quietly in background over and over then go to chords when  
muting on guitar 1 ends 

 
e|--5-3-2---------5--3--2----------------------------------------------------| 
B|----------------3--3--3----------------------------------------------------| 
G|---------------------------------------------------------------------------| 
D|---------------------------------------------------------------------------| 
A|---------------------------------------------------------------------------| 
E|---------------------------------------------------------------------------| 
 


| /  slide up 
| \  slide down 
| h  hammer-on 
| p  pull-off 
| ~  vibrato 
| +  harmonic 
| x  Mute note 
		  

See also:

tabs MC Hammer - Can't Touch This tabs Plain White T's - Rhythm Of Love tabs Current Swell - Young And Able tabs Phoenix - Lisztomania tabs Plain White T's - Hey There Delilah (ver. 2) tabs Fort Minor - High road
e-chords

Other versions:

tabs A Day to Remember - You Had Me At Hello
auto scroll beats size up size down change color hide chords drawings
tab show chords e-chords YouTube Clip e-chords hide all tabs e-chords go to top tab

share