A Day to Remember

Violence (enough Is Enough)

A Day to Remember

tabs Expert expert

by  RENEJUNIOR

save to print version add songbook text version e-mail correct tuner
chordsukulelecavacokeyboardtabbassdrumsharmonicaflute Guitar Pro
close

there isn't a video lesson for this song

chords

Violence (enough Is Enough)

	  		
Intro 

Guitar 1 
C |---------------------|---------------|-------------------|------------------| 
G#|---------------------|---------------|-------------------|------------------| 
D#|---------------------|---------------|-------------------|---------7777667--| 
A#|--7--------5h7p5-5---|7-------8888777|7--------5h7p5-5---|7--------xxxxxxx--| 
F |---5-7-8-7------8-578|-5-7-8-7-------|-5-7-8-7------8-578|-5-7-8-7-5555445--| 
A#|----0-0-0-0----------|--5-5-5-5------|--8-8-8-8----------|--7-7-7-7---------| 
       . . . .             . . . .         . . . .             . . . . 
Guitar 2 
C |-------------------------------|-----------------------------| 
G#|-------------------------------|-----------------------------| 
D#|-------------------------------|-----------------------------|           
A#|-------------------------------|-----------------------------| 
F |--00000000-0-0-0--0--0-0-0-0-0-|55555555-5-5-5--5--5-5-5-5-5-| 
A#|--00000000-0-0-0--0--0-0-0-0-0-|55555555-5-5-5--5--5-5-5-5-5-| 
     ........ . . .  .  . . . . .  ........ . . .  .  . . . . .   
C |-------------------------------|-----------------------------| 
G#|-------------------------------|-----------------------------| 
D#|-------------------------------|-----------------------------|            
A#|-------------------------------|-----------------------------| 
F |--88888888-8-8-8--8--8-8-8-8-8-|77777777-7-7-7--7--7-7-7-7-7-| 
A#|--88888888-8-8-8--8--8-8-8-8-8-|77777777-7-7-7--7--7-7-7-7-7-| 
     ........ . . .  .  . . . . .  ........ . . .  .  . . . . . 

Verse 
C |----------------------------------------|----------------------------------------| 
G#|----------------------------------------|----------------------------------------| 
D#|----------------------------------------|----------------------------------------| 
A#|--3----------------7--3-----------------|3--------------/87-7--7--7--------------| 
F |---5----------------5--5----------------|-5----5----8------5-5--5--5-5-4-5-4-4-5-| 
A#|----0-0-0-870-0-0----0--0-0-0--/8777330-|--7-8--7-8---5-------0--0--0---0--------| 
       .   .               .   .              . 
		  

See also:

tabs Panic! At The Disco - This Is Halloween tabs JerryC - Canon rock tabs Rihanna - Shut Up And Drive tabs Lindsey Stirling - Crystallize tabs Panic! At The Disco - Only difference between martyrdom and suicide is press coverage tabs Augustana - Boston
e-chords

Other versions:

tabs Blink 182 - Violence tabs The Casualties - Violence tabs A Day to Remember - Violence (enough Is Enough) tabs Disturbed - Violence Fetish tabs Disturbed - Violence Fetish (ver. 2) tabs Little Comets - Violence Out Tonight
auto scroll beats size up size down change color hide chords drawings
tab show chords e-chords YouTube Clip e-chords hide all tabs e-chords go to top tab

share