A Day to Remember

The Plot To Bomb The Panhandle

A Day to Remember

tabs

by  GUSTSILVA

save to print version add songbook text version e-mail correct tuner
chordsukulelecavacokeyboardtabbassdrumsharmonicaflute Guitar Pro
close

there isn't a video lesson for this song

chords

The Plot To Bomb The Panhandle

	  		

Intro: 
 
D|----------------------------|--------------------------|----------------------------| 
A|----------------------------|--------------------------|----------------------------| 
F|----------------------------|--------------------------|----------------------------| 
C|----101010101010101010101010|----1010101010101010------|----101010101010101010101010| 
G|7777------------------------|7777-----------------73~~~|7777------------------------| 
C|7777------------------------|7777-----------------73~~~|7777------------------------| 
 

Intro. 2: 
 
D|----------------------------|--------------------------|----------------------------|-----------------------| 
A|----------------------------|--------------------------|----------------------------|-----------------------| 
F|----------------------------|--------------------------|----------------------------|-----------------------| 
C|----101010101010101010101010|----1010101010101010------|----101010101010101010101010|----1010101010101010---| 
G|7777------------------------|7777-----------------73~~~|7777------------------------|7777-----------------73| 
C|7777------------------------|7777-----------------73~~~|7777------------------------|7777-----------------73| 
 

 
D|----------------------------|--------------------------|----------------------------|-------------------------| 
A|----------------------------|--------------------------|----------------------------|-------------------------| 
F|----------------------------|--------------------------|----------------------------|-------------------------| 
C|----101010101010101010101010|----1010101010101010------|----101010101010101010101010|----1010101010101010-----| 
G|7777------------------------|7777-----------------73~~~|7777------------------------|7777-----------------73~~| 
C|7777------------------------|7777-----------------73~~~|7777------------------------|7777-----------------73~~| 
 

Pre-Verse: 
 
D|--------------------| 
A|--------------------| 
F|--------------------| 
C|--------------------| 
G|0~~0023-------03-3~~| 
C|--------2~~22----3~~| 
 

Verse: 
 
D|----------------------------------|-----------------------------| 
A|----------------------------------|-----------------------------| 
F|----------------------------------|-----------------------------| 
C|----------------------------------|---------5~55~555----XX-XX-XX| 
G|7~77~777-2~22~222-3~33~3333~33~333|7~77~777-3~33~333-3~~XX-XX-XX| 
C|7~77~777-2~22~222-3~33~3333~33~333|7~77~777----------3~~XX-XX-XX| 
 

 
D|----------------------------------|-------------------------| 
A|----------------------------------|-------------------------| 
F|----------------------------------|-------------------------| 
C|----------------------------------|---------5~55~555--------| 
G|7~77~777-2~22~222-3~33~3333~33~333|7~77~777-3~33~333-3~~~~~~| 
C|7~77~777-2~22~222-3~33~3333~33~333|7~77~777----------3~~~~~~| 
 

Pre-Chorus 
 
D|--------------------------------|--------------------------------| 
A|--------------------------------|--------------------------------| 
F|--------------------------------|--------------------------------| 
C|--------------------------------|----------------------55-55-5555| 
G|33-33-33-33-333377-77-77-77-7777|33-33-33-33-333377-77-33-33-3333| 
C|33-33-33-33-333377-77-77-77-7777|33-33-33-33-333377-77-----------| 
 
  PM............................................................... 

 
D|--------------------------------|-----------------------------------------| 
A|--------------------------------|-------------------------------------6~~~| 
F|--------------------------------|-------------------------------------5~~~| 
C|--------------------------------|---------------------------------3~~~3~~~| 
G|33-33-33-33-333377-77-77-77-7777|33-33-33-33-333355-55-22-22-2222-3~~~3~~~| 
C|33-33-33-33-333377-77-77-77-7777|33-33-33-33-333355-55-22-22-2222-3~~~3~~~| 
 
  PM............................................................... 

Chorus:                                                                   
D|--------------------------------|---------------------------------|     
A|--------------------------------|---------------------------------|     
F|--------------------------------|---------------------------------|     
C|--------------------------------|5~55~555~555~555-----------------| x2  
G|7~77~777~777~7773~33~333~333~333|3~33~333~333~3335~55~555~6~66~666|     
C|7~77~777~777~7773~33~333~333~333|----------------5~55~555~6~66~666|     

"I'll rip that scandalous bitch in two" 
 
D|-----------------| 
A|-----------------| 
F|----55555555-----| 
C|-----------------| 
G|3~3----------7-5~| 
C|3~3----------7-5~| 
 

Intro. 2  
 
D|----------------------------|--------------------------|----------------------------|-----------------------| 
A|----------------------------|--------------------------|----------------------------|-----------------------| 
F|----------------------------|--------------------------|----------------------------|-----------------------| 
C|----101010101010101010101010|----1010101010101010------|----101010101010101010101010|----1010101010101010---| 
G|7777------------------------|7777-----------------73~~~|7777------------------------|7777-----------------73| 
C|7777------------------------|7777-----------------73~~~|7777------------------------|7777-----------------73| 
 

 
D|----------------------------|--------------------------|----------------------------|-------------------------| 
A|----------------------------|--------------------------|----------------------------|-------------------------| 
F|----------------------------|--------------------------|----------------------------|-------------------------| 
C|----101010101010101010101010|----1010101010101010------|----101010101010101010101010|----1010101010101010-----| 
G|7777------------------------|7777-----------------73~~~|7777------------------------|7777-----------------73~~| 
C|7777------------------------|7777-----------------73~~~|7777------------------------|7777-----------------73~~| 
 

Pre-Verse 
 
D|--------------------| 
A|--------------------| 
F|--------------------| 
C|--------------------| 
G|0~~0023-------03-3~~| 
C|--------2~~22----3~~| 
 

Verse 
Pre-Chorus 
Chorus x2 

Interlude: 
 
D|--------|--------------------|--------------------------------|--------------------------------| 
A|--------|--------------------|--------------------------------|--------------------------------| 
F|--------|--------------------|--------------------------------|--------------------------------| 
C|3~~~~~~~|3~~~~7~~~~3~~~~7~~~~|--------------------------------|------------------------55555555| 
G|3~~~~~~~|3~~~~7~~~~3~~~~7~~~~|333~333~333~333~777~777~555~555~|333~333~333~333~777~777~33333333| 
C|3~~~~~~~|3~~~~7~~~~3~~~~7~~~~|333~333~333~333~777~777~555~555~|333~333~333~333~777~777~--------| 
 
                                ..  ..  ..  ..  ..  ..  ..  ..   ..  ..  ..         
 
D|--------|---------------|--------|-----|-----------|-------------|-----------|-------------| 
A|--------|---------------|--------|-----|-----------|-------------|-----------|-------------| 
F|--------|-------55555555|--------|-----|-----------|-------------|-----------|-------------| 
C|--------|-------xxxxxxxx|--------|-----|-----------|-------------|-----------|-------------| 
G|7~2~3~~~|7~2~3--33333333|7~2~3~~~|7~2~3|-------3~33|-------3~3/5~|-------3~33|-------3~355~| 
C|7~2~3~~~|7~2~3----------|7~2~3~~~|7~2~3|7~2~3~~3~33|7~2~3~~3~3/5~|7~2~3~~3~33|7~2~3~~3~355~| 
 

Outro. 
D|----------------------------|--------------------------|----------------------------|---------------------------| 
A|----------------------------|--------------------------|----------------------------|---------------------------| 
F|----------------------------|--------------------------|----------------------------|---------------------------| 
C|----101010101010101010101010|----1010101010101010------|----101010101010101010101010|----1010101010101010-------| 
G|7777------------------------|7777-----------------73~~~|7777------------------------|7777-----------------73~~7\| 
C|7777------------------------|7777-----------------73~~~|7777------------------------|7777-----------------73~~7\| 
		  

See also:

tabs Dj Tiesto - lethal industry tabs Dj Tiesto - Welcome To Ibiza tabs OMD - Enola Gay tabs Plain White T's - Write You a Song tabs The Kooks - See the world tabs Current Swell - Young And Able
e-chords

Other versions:

tabs A Day to Remember - The Plot To Bomb The Panhandle
auto scroll beats size up size down change color hide chords drawings
tab show chords e-chords YouTube Clip e-chords hide all tabs e-chords go to top tab

share