A Day to Remember

The Danger In Starting A Fire

A Day to Remember

tabs

by  GUSTSILVA

save to print version add songbook text version e-mail correct tuner
chordsukulelecavacokeyboardtabbassdrumsharmonicaflute Guitar Pro
close

there isn't a video lesson for this song

chords

The Danger In Starting A Fire

	  		

Intro. 
 
D|-------------------------| 
A|----8---8h10-----8---8h10| 
F|--7------------7---------| 
C|0-----0------0-----0-----| x2 
G|-------------------------| 
C|-------------------------| 
 
  P P   P      P P   P 
Verse: 
 
D|-----------------------------------|--------------------------------| 
A|-----------------------------------|--------------------------------| 
F|-----------------------------------|--------------------------------| 
C|XXX--------------------------------|--------------------------------| 
G|XXX5~55~555~555~5558~88~888~888~888|0~00~000~000~0003~33~333~333~333| 
C|XXX5~55~555~555~5558~88~888~888~888|0~00~000~000~0003~33~333~333~333| 
 

 
D|----------------------------------|-------------------------------| 
A|----------------------------------|-------------------------------| 
F|----------------------------------|-------------------------------| 
C|----------------------------------|-------------------------------| 
G|55555~55~55~55558888~88~88~8888888|0~00~000~000~0003~33~333~33~333| 
C|55555~55~55~55558888~88~88~8888888|0~00~000~000~0003~33~333~33~333| 
 
                                 PPP 
Pre-Chorus  
D|-------------------------------------------|-----------------|-----------------| 
A|-------------------------------------------|-----------------|-----------------| 
F|77777777777755510~1010~101010~101010~101010|-----------------|-----------------|  
C|xxxxxxxxxxxxxxxx--x-x--x-x-x--x-x-x--x-x-x-|-----------------|-----------------| (whole Pre-Chorus) x2 
G|5555555555553338~~8-8~-8-8-8~-8-8-8~-8-8-8-|--8-7------8-7---|--8-7------8-7---| 
C|-------------------------------------------|00-0-10-0-0-0-10~|00-0-10-0-0-0-10~| 

Break: 
 
D|-----------------|--------------| 
A|-----------------|--------------| 
F|-----------------|--------------| 
C|-----------------|--------------| 
G|--8-7------8-7---|--8-7-----10*b| 
C|00-0-10-0-0-0-10~|00-0-10-0-----| 
 

Break 2: 
D|-----------------| 
A|-----------------| 
F|-----------------|  
C|-----------------| x4 
G|--8-7------8-7---| 
C|00-0-10-0-0-0-10~| 

Interlude: 
 
D|----------|------------------|----------|----------|----------| 
A|----------|------------------|----------|----------|----------| 
F|----------|------------------|----------|----------|----------| 
C|----------|------------------|----------|----------|----------| 
G|000-0-0-00|000-0-0-00-000-000|000-0-0-00|000-0-0-00|000-0-0-00| 
C|000-0-0-00|000-0-0-00-000-000|000-0-0-00|000-0-0-00|000-0-0-00| 
 
  PPP P P PP PPP P P PP PPP PPP PPP P P PP PPP P P PP PPP P P PP 
 
D|-----------| 
A|-----------| 
F|-----------| 
C|-----------| x5 
G|000~0~0~00~| 
C|000~0~0~00~| 
 
  PPP P P PP 
Intro. 
Verse 
Pre-Chorus 
             
/---x4------\ 
D|----------|-----------|----------|-------| 
A|----------|-----------|----------|-------| 
F|----------|-----------|----------|10~~~~~| 
C|----------|-----------|----------|8~~~~~~| 
G|000-0-0-00|000~0~0~00~|000-0~0~00|8~~~~~~| 
 
 
C|000-0-0-00|000~0~0~00~|000-0~0~00|8~~~~~~| 
 
  PPP P P PP PPP P P PP  PPP P P PP           
Outro. 
 
D|---11--|-------------------11--| 
A|---14--|-------------------14--| 
F|-------|-----------------------| 
C|-------|-----------------------| 
G|000--00|0-000~00000~0-0-0-0--00| 
C|000--00|0-000~00000~0-0-0-0--00| 
 
  PPP  PP P PPP PPPPP P P P P  PP 
 
		  

See also:

tabs Dj Tiesto - lethal industry tabs Dj Tiesto - Welcome To Ibiza tabs OMD - Enola Gay tabs Plain White T's - Write You a Song tabs The Kooks - See the world tabs Current Swell - Young And Able
e-chords

Other versions:

tabs A Day to Remember - The Danger In Starting A Fire
auto scroll beats size up size down change color hide chords drawings
tab show chords e-chords YouTube Clip e-chords hide all tabs e-chords go to top tab

share