A Day to Remember

Speak Of The Devil

A Day to Remember

tabs

by  GUSTSILVA

save to print version add songbook text version e-mail correct tuner
chordsukulelecavacokeyboardtabbassdrumsharmonicaflute Guitar Pro
close

there isn't a video lesson for this song

chords

Speak Of The Devil

	  		
(Intro) 
|------------------| 
|------------------| 
|----tttttttttt999-|  (3x) 
|-0~0xxxxxxxxxxxxx-| 
|-0~08888888888777-| 
|-0~00000000000000-| 

|------------| 
|------------| 
|------------| (repeat intro) 
|-88x88x77x3~| 
|-88x88x77x3~| 
|-88x88x77x3~| 
           . 
(verse 1) 
|-----(figure out)|-------(again)--------| 
|-----(how many  )|-------(figure)-------| 
|-----(pa|m mutes)|-------(it)-----------| 
|-0~00(it's not  )|-0x0~00(out)--x3x6x5--| 
|-0~00(hear them )|-0x0~00-------x3x6x5--| 
|-0~00------------|-0x0~00-------x3x6x5--| 
     .                   . 
|------------------| 
|------------------| 
|------------------| (repeat verse 1) 
|-0~00-88x88xttx77-| 
|-0~00-88x88xttx77-| 
|-0~00-88x88xttx77-| 
     . 
(Pre-Chorus 1) 
|----------| 
|----------| 
|-t~w~9~5~-| 
|-x~x~x~x~-| 
|-8~t~7~3~-| 
|-0~0~0~0~-| 

(Chorus) 
|---------| 
|---------| 
|-7-------| (2x figure out strumming) 
|-7-8-3-t-| 
|-5-8-3-t-| 
|---8-3-t-| 

|------------------| 
|------------------| 
|----tttttttttt999-| 2x 
|-0~0xxxxxxxxxxxxx-| 
|-0~08888888888777-| 
|-0~00000000000000-| 

(verse 2) 
|----------------------------------------------| 
|----------------------------------------------| 
|----------------------------------------------|  2x 
|-0~0000--0x0~0000-x3x6x5-0~0000--88x88xttx77x-| 
|-0~0000--0x0~0000-x3x6x5-0~0000--88x88xttx77x-| 
|-0~0000--0x0~0000-x3x6x5-0~0000--88x88xttx77x-| 
     ...       ...           ... 

(Pre-Chorus 2) 
|--------| 
|--------| 
|-t~9~5~-| 
|-x~x~x~-| 
|-8~7~3~-| 
|-0~~~~~-| 

|-----| 
|-----| 
|-----| 
|-888-| 
|-888-| 
|-888-| 
  ... 

(Chorus) 

(for the breakdown just mess around with) 
|-----| 
|-----| 
|-7---|   
|-x-0-| 
|-5-0-| 
|---0-| 

(pre-Chorus 3)

|-----| 
|-----| 
|-t~9-| 
|-x~x-| 
|-8~7-| 
|-0~~-| 

(Chorus) 
		  

See also:

tabs Dj Tiesto - lethal industry tabs Dj Tiesto - Welcome To Ibiza tabs OMD - Enola Gay tabs Plain White T's - Write You a Song tabs The Kooks - See the world tabs Current Swell - Young And Able
e-chords

Other versions:

tabs A Day to Remember - Speak Of The Devil
auto scroll beats size up size down change color hide chords drawings
tab show chords e-chords YouTube Clip e-chords hide all tabs e-chords go to top tab

share