A Day to Remember

Resultados Da Pesquisa Mr. Highway's Thinking About The End

A Day to Remember

tabs

by  GUSTSILVA

save to print version add songbook text version e-mail correct tuner
chordsukulelecavacokeyboardtabbassdrumsharmonicaflute Guitar Pro
close

there isn't a video lesson for this song

chords

Resultados Da Pesquisa Mr. Highway's Thinking About The End

	  		
Afinação Bb F Bb Eb G C 

(Intro) 

  (guitar III) 
    E E E  E  E E E E   E E E  E  E E E E 
 
|-----------0-------|-----------0-------| 
|-----6-------6---6-|-----6-------6---6-| 
|-7-7---(7)-----7---|-7-7---(7)-----7---| 
|-------------------|-------------------| 
|-------------------|-------------------| 
|-------------------|-------------------| 
 

    E E E  E  E E E E   E E E  E  E E E E 
 
|-----------0-------|-----------0-------| 
|-----6-------6---6-|-----6-------6---6-| 
|-7-7---(7)-----7---|-7-7---(7)-----7---| 
|-------------------|-------------------| 
|-------------------|-------------------| 
|-------------------|-------------------| 
 

  D5 
  (guitar III) 
    E E E   E  E E E E    E  E E  E  E   E E   E 
 
|------------0-------|-------------0-----------| 
|-----6--------6---6-|-------6---------6-----6-| 
|-7-7----(7)-----7---|--7--7---(7)-------7-----| 
|--------------------|-------------------------| 
|--------------------|-------------------------| 
|--------------------|-------------------------| 
 
| 
| (guitars I, II) 
| PM-------------------------------------------- 
| E E Q.       E E E   +H          S S E S S E 
 
|--------------------|-------------------------| 
|--------------------|-------------------------| 
|--------------------|-------------------------| 
|--------------------|-------------------------| 
|-0-0-0--------0-0-0-|-(0)---------0-0-0-0-0-0-| 
|-0-0-0--------0-0-0-|-(0)---------0-0-0-0-0-0-| 
 

    E E E   E  E E E E    E  E E  E  E   E E   E 
 
|------------0-------|-------------0-----------| 
|-----6--------6---6-|-------6---------6-----6-| 
|-7-7----(7)-----7---|--7--7---(7)-------7-----| 
|--------------------|-------------------------| 
|--------------------|-------------------------| 
|--------------------|-------------------------| 
 
| 
| E E Q.       E E E   +H          S S E S S E 
 
|--------------------|-------------------------| 
|--------------------|-------------------------| 
|--------------------|-------------------------| 
|--------------------|-------------------------| 
|-0-0-0--------0-0-0-|-(0)---------0-0-0-0-0-0-| 
|-0-0-0--------0-0-0-|-(0)---------0-0-0-0-0-0-| 
 

  E E E   E  E E E E    E  E E  E  E   E  E E     W                W 
 
|------------0-------|-------------0------------|----------------|------|| 
|-----6--------6---6-|-------6---------6----6---|----------------|------|| 
|-7-7----(7)-----7---|--7--7---(7)--------7-----|----------------|------|| 
|--------------------|--------------------------|----------------|------|| 
|--------------------|--------------------------|----------------|------|| 
|--------------------|--------------------------|----------------|------|| 
 
| 
| PM-----------------------------------|          PM--|    PM--| 
| E E Q.       E E E   +H          S S E  Q   a   E E E Q  E E E   W 
 
|--------------------|--------------------------|----------------|------|| 
|--------------------|--------------------------|----------------|------|| 
|--------------------|--------------------------|----------------|------|| 
|--------------------|--------------------------|----------------|------|| 
|-0-0-0--------0-0-0-|-(0)---------0-0-0-12s==0-|-0-0-0----0-0-0-|------|| 
|-0-0-0--------0-0-0-|-(0)---------0-0-0-12s==0-|-0-0-0----0-0-0-|------|| 
 
                                                               "Wake up!" 
(breakdown) 
                                            Faster Q=149 
    D5 
    (guitars I, II) 
     
PM------------------------------------------------------------| 
      E E Q.   E E E   +H     S S E S S E  4x S S E S S E S S E S S E 

 
||-----------------|---------------------||-------------------------|| 
||o----------------|--------------------o||-------------------------|| 
||-----------------|---------------------||-------------------------|| 
||-----------------|---------------------||-------------------------|| 
||o-0-0-0----0-0-0-|-(0)----0-0-0-0-0-0-o||-0-0-0-0-0-0-0-0-0-0-0-0-|| 
||--0-0-0----0-0-0-|-(0)----0-0-0-0-0-0--||-0-0-0-0-0-0-0-0-0-0-0-0-|| 
 

 "Oh how the times have.." 
  D5N.C. D5N.C. D5                N.C. 
  (guitar I) 
   
PM     PM     PM--------------| 
 
  E E  E E E  E E E   S S E S S E Q     Q 
 
|-------------------|-------------------------| 
|-------------------|-------------------------| 
|-------------------|-------------------------| 
|-------------------|-------------------------| 
|-0-8h12-0-7h10-0-0-|-0-0-0-0-0-0-5tr8--4tr7--| 
|-0------0------0-0-|-0-0-0-0-0-0-------------| 
 
| 
| (guitar II) 
|  
PM     PM     PM--------------| 
 
| E E  E E E  E E E   S S E S S E Q     Q 
 
|-------------------|-------------------------| 
|-------------------|-------------------------| 
|-------------------|-------------------------| 
|-------------------|-------------------------| 
|-0-5h=8-0-4h=7-0-0-|-0-0-0-0-0-0-8tr12-7tr10-| 
|-0------0------0-0-|-0-0-0-0-0-0-------------| 
 

    D5N.C. D5N.C. D5                N.C. 
   
PM     PM     PM--------------| 
 
  E E  E E E  E E E   S S E S S E  S  S  S  S  S  S  S  S 
 
|-------------------|--------------------------------------| 
|-------------------|--------------------------------------| 
|-------------------|--------------------------------------| 
|-------------------|-------------12-12-12-12-10-10-10-10--| 
|-0-8h12-0-7h10-0-0-|-0-0-0-0-0-0--------------------------| 
|-0------0------0-0-|-0-0-0-0-0-0--------------------------| 
 
| 
|  
PM     PM     PM--------------| 
 
| E E  E E E  E E E   S S E S S E  S  S  S  S  S  S  S  S 
 
|-------------------|--------------------------------------| 
|-------------------|--------------------------------------| 
|-------------------|--------------------------------------| 
|-------------------|--------------8--8--8--8--7--7--7--7--| 
|-0-5h=8-0-4h=7-0-0-|-0-0-0-0-0-0--------------------------| 
|-0------0------0-0-|-0-0-0-0-0-0--------------------------| 
 

    D5N.C. D5N.C. D5                N.C. 
   
PM     PM     PM--------------| 
 
  E E  E E E  E E E   S S E S S E Q     Q 
 
|-------------------|-------------------------| 
|-------------------|-------------------------| 
|-------------------|-------------------------| 
|-------------------|-------------------------| 
|-0-8h12-0-7h10-0-0-|-0-0-0-0-0-0-5tr8--4tr7--| 
|-0------0------0-0-|-0-0-0-0-0-0-------------| 
 
| 
|  
PM     PM     PM--------------| 
 
| E E  E E E  E E E   S S E S S E Q     Q 
 
|-------------------|-------------------------| 
|-------------------|-------------------------| 
|-------------------|-------------------------| 
|-------------------|-------------------------| 
|-0-5h=8-0-4h=7-0-0-|-0-0-0-0-0-0-8tr12-7tr10-| 
|-0------0------0-0-|-0-0-0-0-0-0-------------| 
 

    D5N.C. D5N.C. D5                  N.C. 
                                     \1_____| 
   
PM     PM     PM----------------| 
 
  E E  E E E  E E E   S S E S S S S  H      a 
 
|-------------------|-------------------------| 
|-------------------|--------------------x-| 
|-------------------|-------------------------| 
|-------------------|-------------------------| 
|-0-8h12-0-7h10-0-0-|-0-0-0-0-0-0-0-----------| 
|-0------0------0-0-|-0-0-0-0-0-0-0-----------| 
 
|                                    \1_____| 
|  
PM     PM     PM----------------| 
 
| E E  E E E  E E E   S S E S S S S  H      a 
 
|-------------------|-------------------------| 
|-------------------|--------------------x-| 
|-------------------|-------------------------| 
|-------------------|-------------------------| 
|-0-5h=8-0-4h=7-0-0-|-0-0-0-0-0-0-0-----------| 
|-0------0------0-0-|-0-0-0-0-0-0-0-----------| 
 

    D5N.C. D5N.C. D5 
     
PM     PM     PM--------------------- 
 
      E E  E E E  E E E   E E E E E E E E 
 
||--------------------|-----------------| 
||o-------------------|-----------------| 
||--------------------|-----------------| 
||--------------------|-----------------| 
||o-0-8h12-0-7h10-0-0-|-0-0-0-0-0-0-0-0-| 
||--0------0------0-0-|-0-0-0-0-0-0-0-0-| 
 
| 
|    
PM     PM     PM--------------------- 
 
|   E E  E E E  E E E   E E E E E E E E 
 
||--------------------|-----------------| 
||o-------------------|-----------------| 
||--------------------|-----------------| 
||--------------------|-----------------| 
||o-0-5h=8-0-4h=7-0-0-|-0-0-0-0-0-0-0-0-| 
||--0------0------0-0-|-0-0-0-0-0-0-0-0-| 
 

      N.C. D5N.C. D5            N.C. 
 -|      PM           PM----| 
  E E  E E E  E E E   E E E E  S  S  S  S  S  S  S  S 
 
|-------------------|-----------------------------------|| 
|-------------------|----------------------------------o|| 
|-------------------|-----------------------------------|| 
|-------------------|---------12-12-12-12-10-10-10-10---|| 
|-0-8h12-0-7h10-0-0-|-0-0-0-0--------------------------o|| 
|-0------0------0-0-|-0-0-0-0---------------------------|| 
 
| 
|-|      PM           PM----| 
| E E  E E E  E E E   E E E E  S  S  S  S  S  S  S  S 
 
|-------------------|-----------------------------------|| 
|-------------------|----------------------------------o|| 
|-------------------|-----------------------------------|| 
|-------------------|----------8--8--8--8--7--7--7--7---|| 
|-0-5h=8-0-4h=7-0-0-|-0-0-0-0--------------------------o|| 
|-0------0------0-0-|-0-0-0-0---------------------------|| 
 

  (guitar III) 
     E  E E  E    E   E E E     E   E E  E  E E E E 
 
|---------------0---------|---------------0-------|| 
|-------6-----------6---6-|---------6-------6---6-|| 
|--7--7---(7)---------7---|---7---7---(7)-----7---|| 
|-------------------------|-----------------------|| 
|-------------------------|-----------------------|| 
|-------------------------|-----------------------|| 
 
| 
| (guitars I, II) 
|  < 
|  H           +H            +W 
 
|-------------------------|-----------------------|| 
|-------------------------|-----------------------|| 
|-------------------------|-----------------------|| 
|----------()-------|-()-----------------|| 
|-------------------------|-----------------------|| 
|-------------------------|-----------------------|| 
 

 "It's like speaking in.." 
  Bbsus2                     G5 
  (guitar III) 
     E  E  E  E   E  E  E  E   E E E  E  E E E E 
 
|---------------0----------|-----------0-------| 
|--------6---------6-----6-|-----6-------6---6-| 
|--7--7----(7)--------7----|-7-7---(7)-----7---| 
|--------------------------|-------------------| 
|--------------------------|-------------------| 
|--------------------------|-------------------| 
 
| 
| (guitars I, II) 
|  E  E  E  E   E  E  E  E   E E E  E  E E E E 
 
|--------------------------|-------------------| 
|--------------------------|-------------------| 
|--------------------------|-------------------| 
|-10-10-10-10--10-10-10-10-|-5-5-5--5--5-5-5-5-| 
|--8--8--8--8---8--8--8--8-|-5-5-5--5--5-5-5-5-| 
|--8--8--8--8---8--8--8--8-|-5-5-5--5--5-5-5-5-| 
 

  D5 
    E E E  E  E E E E   E E E  E  E E E E 
 
|-----------0-------|-----------0-------| 
|-----6-------6---6-|-----6-------6---6-| 
|-7-7---(7)-----7---|-7-7---(7)-----7---| 
|-------------------|-------------------| 
|-------------------|-------------------| 
|-------------------|-------------------| 
 
| 
| E E E  E  E E E E   E E E  E  E E E E 
 
|-------------------|-------------------| 
|-------------------|-------------------| 
|-------------------|-------------------| 
|-0-0-0--0--0-0-0-0-|-0-0-0--0--0-0-0-0-| 
|-0-0-0--0--0-0-0-0-|-0-0-0--0--0-0-0-0-| 
|-0-0-0--0--0-0-0-0-|-0-0-0--0--0-0-0-0-| 
 

  Bbsus2                     G5 
  (guitar III) 
     E  E  E  E   E  E  E  E   E E E  E  E E E E 
 
|---------------0----------|-----------0-------| 
|--------6---------6-----6-|-----6-------6---6-| 
|--7--7----(7)--------7----|-7-7---(7)-----7---| 
|--------------------------|-------------------| 
|--------------------------|-------------------| 
|--------------------------|-------------------| 
 
| 
| (guitar I) 
|  E  E  E  E   E  E  E  E   E E E  E  E E E E 
 
|--------------------------|-------------------| 
|--------------------------|-------------------| 
|--------------------------|-------------------| 
|-10-10-10-10--10-10-10-10-|-5-5-5--5--5-5-5-5-| 
|--8--8--8--8---8--8--8--8-|-5-5-5--5--5-5-5-5-| 
|--8--8--8--8---8--8--8--8-|-5-5-5--5--5-5-5-5-| 
 
| 
| (guitar II) 
|  E  E  E  E   E  E  E  E   E E E  E  E E E E 
 
|--------------------------|-------------------| 
|--------------------------|-------------------| 
|--------------------------|-------------------| 
|-10-10-10-10--10-10-10-10-|-5-5-5--5--5-5-5-5-| 
|--8--8--8--8---8--8--8--8-|-5-5-5--5--5-5-5-5-| 
|--8--8--8--8---8--8--8--8-|-5-5-5--5--5-5-5-5-| 
 

    D5 
    E E   E    E    E  E    E E    E  E   E    E    E  E    E E 
 
|-----------------0-----------|-------------------0------------| 
|-------6------------6------6-|---------6------------6------6--| 
|-7-7-------(7)-----------7---|--7--7-------(7)-----------7----| 
|-----------------------------|--------------------------------| 
|-----------------------------|--------------------------------| 
|-----------------------------|--------------------------------| 
 
| 
|   PM--------------------------------------------| 
| E S S S S  S  S E.   E.   E   +E  S S S S  S  S Q       Q 
 
|-----------------------------|--------------------------------| 
|-----------------------------|---------------------------6s===| 
|-----------------------------|--------------------------------| 
|-----------------------------|--------------------------------| 
|---0-0-0-0--0--0-0----0----0-|-(0)-0-0-0-0--0--0-0------------| 
|---0-0-0-0--0--0-0----0----0-|-(0)-0-0-0-0--0--0-0------------| 
 
| 
|   PM------------------------------------------------------| 
| E S S S S  S  S E.   E.   E   +E  S S S S  S  S E.   E.   E 
 
|-----------------------------|--------------------------------| 
|-----------------------------|--------------------------------| 
|-----------------------------|--------------------------------| 
|-----------------------------|--------------------------------| 
|---0-0-0-0--0--0-0----0----0-|-(0)-0-0-0-0--0--0-0----0----0--| 
|---0-0-0-0--0--0-0----0----0-|-(0)-0-0-0-0--0--0-0----0----0--| 
 

  Bbsus2                     G5 
     E  E  E  E   E  E  E  E    E  E  E  E   E  E  E  E 
 
|---------------0----------|---------------0----------| 
|--------6---------6-----6-|--------6---------6-----6-| 
|--7--7----(7)--------7----|--7--7----(7)--------7----| 
|--------------------------|--------------------------| 
|--------------------------|--------------------------| 
|--------------------------|--------------------------| 
 
| 
|  E  E  E  E   E  E  E  E    E  E  E  E   E  E  E  E 
 
|--------------------------|--------------------------| 
|-13-13-13-13--13-13-13-13-|-11-11-11-11--11-11-11-11-| 
|--------------------------|--------------------------| 
|--------------------------|--------------------------| 
|--------------------------|--------------------------| 
|--------------------------|--------------------------| 
 
| 
|  E  E  E  E   E  E  E  E    E  E  E  E   E  E  E  E 
 
|--------------------------|--------------------------| 
|--------------------------|--------------------------| 
|--------------------------|--------------------------| 
|-10-10-10-10--10-10-10-10-|--5--5--5--5---5--5--5--5-| 
|--8--8--8--8---8--8--8--8-|--5--5--5--5---5--5--5--5-| 
|--8--8--8--8---8--8--8--8-|--5--5--5--5---5--5--5--5-| 
 

  D5 
     E  E  E  E   E  E  E  E   E E E  E  E E E E 
 
|---------------0----------|-----------0-------| 
|--------6---------6-----6-|-----6-------6---6-| 
|--7--7----(7)--------7----|-7-7---(7)-----7---| 
|--------------------------|-------------------| 
|--------------------------|-------------------| 
|--------------------------|-------------------| 
 
| 
|  E  E  E  E   E  E  E  E   E E E  E  E E Q 
 
|--------------------------|-------------------| 
|-11-10-10-10--10-10-10-10-|-6-6-6--6--5-5-6s==| 
|--------------------------|-------------------| 
|--------------------------|-------------------| 
|--------------------------|-------------------| 
|--------------------------|-------------------| 
 
| 
|  E  E  E  E   E  E  E  E   E E E  E  E E E E 
 
|--------------------------|-------------------| 
|--------------------------|-------------------| 
|--------------------------|-------------------| 
|--0--0--0--0---0--0--0--0-|-0-0-0--0--0-0-0-0-| 
|--0--0--0--0---0--0--0--0-|-0-0-0--0--0-0-0-0-| 
|--0--0--0--0---0--0--0--0-|-0-0-0--0--0-0-0-0-| 
 

  Bbsus2                     G5 
     E  E  E  E   E  E  E  E    E  E  E  E   E  E  E  E 
 
|---------------0----------|---------------0----------| 
|--------6---------6-----6-|--------6---------6-----6-| 
|--7--7----(7)--------7----|--7--7----(7)--------7----| 
|--------------------------|--------------------------| 
|--------------------------|--------------------------| 
|--------------------------|--------------------------| 
 
| 
|  E  E  E  E   E  E  E  E    E  E  E  E   E  E  E  E 
 
|--------------------------|--------------------------| 
|-13-13-13-13--13-13-13-13-|-11-11-11-11--11-10-10-10-| 
|--------------------------|--------------------------| 
|--------------------------|--------------------------| 
|--------------------------|--------------------------| 
|--------------------------|--------------------------| 
 
| 
|  E  E  E  E   E  E  E  E    E  E  E  E   E  E  E  E 
 
|--------------------------|--------------------------| 
|--------------------------|--------------------------| 
|--------------------------|--------------------------| 
|-10-10-10-10--10-10-10-10-|--5--5--5--5---5--5--5--5-| 
|--8--8--8--8---8--8--8--8-|--5--5--5--5---5--5--5--5-| 
|--8--8--8--8---8--8--8--8-|--5--5--5--5---5--5--5--5-| 
 

  D5 
    E E   E    E    E  E    E E    E  E   E    E    E  E    E E 
 
|-----------------0-----------|-------------------0------------| 
|-------6------------6------6-|---------6------------6------6--| 
|-7-7-------(7)-----------7---|--7--7-------(7)-----------7----| 
|-----------------------------|--------------------------------| 
|-----------------------------|--------------------------------| 
|-----------------------------|--------------------------------| 
 
| 
|   PM------------------------------------------------------| 
| E S S S S  S  S E.   E.   E   +E  S S S S  S  S E.   E.   E 
 
|-----------------------------|--------------------------------| 
|-----------------------------|--------------------------------| 
|-----------------------------|--------------------------------| 
|-----------------------------|--------------------------------| 
|---0-0-0-0--0--0-0----0----0-|-(0)-0-0-0-0--0--0-0----0----0--| 
|---0-0-0-0--0--0-0----0----0-|-(0)-0-0-0-0--0--0-0----0----0--| 
 
| 
|   PM------------------------------------------------------| 
| E S S S S  S  S E.   E.   E   +E  S S S S  S  S E.   E.   E 
 
|-----------------------------|--------------------------------| 
|-----------------------------|--------------------------------| 
|-----------------------------|--------------------------------| 
|-----------------------------|--------------------------------| 
|---0-0-0-0--0--0-0----0----0-|-(0)-0-0-0-0--0--0-0----0----0--| 
|---0-0-0-0--0--0-0----0----0-|-(0)-0-0-0-0--0--0-0----0----0--| 
 

                            "I've created a monster.." 
                             D5N.C. D5N.C. D5                N.C. 
  (guitar I) 
   
PM-------------------------|      PM     PM--------------| 
 
  S S E Q     S S E S S E    E E  E E E  E E E   S S E S S E Q      Q 
 
|-------------------------||-------------------|----------------------------| 
|-------------------------||-------------------|----------------------------| 
|-------------------------||-------------------|----------------------------| 
|-------------------------||-------------------|----------------------------| 
|-0-0-0-------0-0-0-0-0-0-||-0-8h12-0-7h10-0-0-|-0-0-0-0-0-0-5tr8---4tr7----| 
|-0-0-0-------0-0-0-0-0-0-||-0------0------0-0-|-0-0-0-0-0-0----------------| 
 
| 
| (guitar II) 
|       PM-------------------|      PM     PM--------------| 
| Q     S S E Q     S S E    E E  E E E  E E E   S S E S S E Q      Q 
 
|-------------------------||-------------------|----------------------------| 
|-------------------------||-------------------|----------------------------| 
|-------------------------||-------------------|----------------------------| 
|-------------------------||-------------------|----------------------------| 
|-------0-0-0-------0-0-0-||-0-5h=8-0-4h=7-0-0-|-0-0-0-0-0-0-8tr12--7tr10---| 
|-------0-0-0-------0-0-0-||-0------0------0-0-|-0-0-0-0-0-0----------------| 
 

    D5N.C. D5N.C. D5                N.C. 
   
PM     PM     PM--------------| 
 
  E E  E E E  E E E   S S E S S E  S  S  S  S  S  S  S  S 
 
|-------------------|-------------------------------------| 
|-------------------|-------------------------------------| 
|-------------------|-------------------------------------| 
|-------------------|-------------12-12-12-12-10-10-10-10-| 
|-0-8h12-0-7h10-0-0-|-0-0-0-0-0-0-------------------------| 
|-0------0------0-0-|-0-0-0-0-0-0-------------------------| 
 
| 
|  
PM     PM     PM--------------| 
 
| E E  E E E  E E E   S S E S S E  S  S  S  S  S  S  S  S 
 
|-------------------|-------------------------------------| 
|-------------------|-------------------------------------| 
|-------------------|-------------------------------------| 
|-------------------|--------------8--8--8--8--7--7--7--7-| 
|-0-5h=8-0-4h=7-0-0-|-0-0-0-0-0-0-------------------------| 
|-0------0------0-0-|-0-0-0-0-0-0-------------------------| 
 

    D5N.C. D5N.C. D5                N.C. 
   
PM     PM     PM--------------| 
 
  E E  E E E  E E E   S S E S S E Q      Q 
 
|-------------------|---------------------------| 
|-------------------|---------------------------| 
|-------------------|---------------------------| 
|-------------------|---------------------------| 
|-0-8h12-0-7h10-0-0-|-0-0-0-0-0-0-5tr8---4tr7---| 
|-0------0------0-0-|-0-0-0-0-0-0---------------| 
 
| 
|  
PM     PM     PM--------------| 
 
| E E  E E E  E E E   S S E S S E Q      Q 
 
|-------------------|---------------------------| 
|-------------------|---------------------------| 
|-------------------|---------------------------| 
|-------------------|---------------------------| 
|-0-5h=8-0-4h=7-0-0-|-0-0-0-0-0-0-8tr12--7tr10--| 
|-0------0------0-0-|-0-0-0-0-0-0---------------| 
 

    D5N.C. D5N.C. D5                  N.C. 
                                     \1_____| 
   
PM     PM     PM----------------| 
 
  E E  E E E  E E E   S S E S S S S  H      a 
 
|-------------------|-------------------------| 
|-------------------|--------------------x-| 
|-------------------|-------------------------| 
|-------------------|-------------------------| 
|-0-8h12-0-7h10-0-0-|-0-0-0-0-0-0-0-----------| 
|-0------0------0-0-|-0-0-0-0-0-0-0-----------| 
 
||                                    \1_____| 
|  
PM     PM     PM----------------| 
 
| E E  E E E  E E E   S S E S S S S  H      a 
 
|-------------------|-------------------------| 
|-------------------|--------------------x-| 
|-------------------|-------------------------| 
|-------------------|-------------------------| 
|-0-5h=8-0-4h=7-0-0-|-0-0-0-0-0-0-0-----------| 
|-0------0------0-0-|-0-0-0-0-0-0-0-----------| 
 

  D5N.C. D5N.C. D5 
   
PM     PM     PM--------------------- 
 
    E E  E E E  E E E   E E E E E E E E 
 
|-------------------|-----------------| 
|-------------------|-----------------| 
|-------------------|-----------------| 
|-------------------|-----------------| 
|-0-8h12-0-7h10-0-0-|-0-0-0-0-0-0-0-0-| 
|-0------0------0-0-|-0-0-0-0-0-0-0-0-| 
 
| 
|  
PM     PM     PM--------------------- 
 
| E E  E E E  E E E   E E E E E E E E 
 
|-------------------|-----------------| 
|-------------------|-----------------| 
|-------------------|-----------------| 
|-------------------|-----------------| 
|-0-5h=8-0-4h=7-0-0-|-0-0-0-0-0-0-0-0-| 
|-0------0------0-0-|-0-0-0-0-0-0-0-0-| 
 

      N.C. D5N.C. D5            N.C. 
 -|      PM           PM----| 
  E E  E E E  E E E   E E E E  S  S  S  S  S  S  S  S 
 
|-------------------|---------------------------------| 
|-------------------|---------------------------------| 
|-------------------|---------------------------------| 
|-------------------|---------12-12-12-12-10-10-10-10-| 
|-0-8h12-0-7h10-0-0-|-0-0-0-0-------------------------| 
|-0------0------0-0-|-0-0-0-0-------------------------| 
 
| 
|-|      PM           PM----| 
| E E  E E E  E E E   E E E E  S  S  S  S  S  S  S  S 
 
|-------------------|---------------------------------| 
|-------------------|---------------------------------| 
|-------------------|---------------------------------| 
|-------------------|----------8--8--8--8--7--7--7--7-| 
|-0-5h=8-0-4h=7-0-0-|-0-0-0-0-------------------------| 
|-0------0------0-0-|-0-0-0-0-------------------------| 
 

    D5N.C. D5N.C. D5                        N.C. D5N.C. D5            N.C. 
   
PM     PM     PM----------------------|      PM           PM----| 
 
    E E  E E E  E E E   E E E E E E E E   E E  E E E  E E E   E E E E E E E E 
 
|-------------------|-----------------|-------------------|-------------0---|| 
|-------------------|-----------------|-------------------|---------6-----6-|| 
|-------------------|-----------------|-------------------|-----------7-----|| 
|-------------------|-----------------|-------------------|-----------------|| 
|-0-8h12-0-7h10-0-0-|-0-0-0-0-0-0-0-0-|-0-8h12-0-7h10-0-0-|-0-0-0-0---------|| 
|-0------0------0-0-|-0-0-0-0-0-0-0-0-|-0------0------0-0-|-0-0-0-0---------|| 
 
| 
|  
PM     PM     PM----------------------|      PM           PM----| 
 
| E E  E E E  E E E   E E E E E E E E   E E  E E E  E E E   E E E E E E E E 
 
|-------------------|-----------------|-------------------|-------------0---|| 
|-------------------|-----------------|-------------------|---------6-----6-|| 
|-------------------|-----------------|-------------------|-----------7-----|| 
|-------------------|-----------------|-------------------|-----------------|| 
|-0-5h=8-0-4h=7-0-0-|-0-0-0-0-0-0-0-0-|-0-5h=8-0-4h=7-0-0-|-0-0-0-0---------|| 
|-0------0------0-0-|-0-0-0-0-0-0-0-0-|-0------0------0-0-|-0-0-0-0---------|| 
 

 "It's like speaking in.." 
  Bbsus2                     G5 
  (guitar III) 
     E  E  E  E   E  E  E  E   E E E  E  E E E E 
 
|---------------0----------|-----------0-------| 
|--------6---------6-----6-|-----6-------6---6-| 
|--7--7----(7)--------7----|-7-7---(7)-----7---| 
|--------------------------|-------------------| 
|--------------------------|-------------------| 
|--------------------------|-------------------| 
 
| 
| (guitars I, II) 
|  E  E  E  E   E  E  E  E   E E E  E  E E E E 
 
|--------------------------|-------------------| 
|--------------------------|-------------------| 
|--------------------------|-------------------| 
|-10-10-10-10--10-10-10-10-|-5-5-5--5--5-5-5-5-| 
|--8--8--8--8---8--8--8--8-|-5-5-5--5--5-5-5-5-| 
|--8--8--8--8---8--8--8--8-|-5-5-5--5--5-5-5-5-| 
 

  D5 
    E E E  E  E E E E   E E E  E  E E E E 
 
|-----------0-------|-----------0-------| 
|-----6-------6---6-|-----6-------6---6-| 
|-7-7---(7)-----7---|-7-7---(7)-----7---| 
|-------------------|-------------------| 
|-------------------|-------------------| 
|-------------------|-------------------| 
 
| 
| E E E  E  E E E E   E E E  E  E E E E 
 
|-------------------|-------------------| 
|-------------------|-------------------| 
|-------------------|-------------------| 
|-0-0-0--0--0-0-0-0-|-0-0-0--0--0-0-0-0-| 
|-0-0-0--0--0-0-0-0-|-0-0-0--0--0-0-0-0-| 
|-0-0-0--0--0-0-0-0-|-0-0-0--0--0-0-0-0-| 
 

  Bbsus2                     G5 
  (guitar III) 
     E  E  E  E   E  E  E  E   E E E  E  E E E E 
 
|---------------0----------|-----------0-------| 
|--------6---------6-----6-|-----6-------6---6-| 
|--7--7----(7)--------7----|-7-7---(7)-----7---| 
|--------------------------|-------------------| 
|--------------------------|-------------------| 
|--------------------------|-------------------| 
 
| 
| (guitar I) 
|  E  E  E  E   E  E  E  E   E E E  E  E E E E 
 
|--------------------------|-------------------| 
|--------------------------|-------------------| 
|--------------------------|-------------------| 
|-10-10-10-10--10-10-10-10-|-5-5-5--5--5-5-5-5-| 
|--8--8--8--8---8--8--8--8-|-5-5-5--5--5-5-5-5-| 
|--8--8--8--8---8--8--8--8-|-5-5-5--5--5-5-5-5-| 
 
| 
| (guitar II) 
|  E  E  E  E   E  E  E  E   E E E  E  E E E E 
 
|--------------------------|-------------------| 
|--------------------------|-------------------| 
|--------------------------|-------------------| 
|-10-10-10-10--10-10-10-10-|-5-5-5--5--5-5-5-5-| 
|--8--8--8--8---8--8--8--8-|-5-5-5--5--5-5-5-5-| 
|--8--8--8--8---8--8--8--8-|-5-5-5--5--5-5-5-5-| 
 

  D5 
    E E   E    E    E  E    E E    E  E   E    E    E  E    E E 
 
|-----------------0-----------|-------------------0------------| 
|-------6------------6------6-|---------6------------6------6--| 
|-7-7-------(7)-----------7---|--7--7-------(7)-----------7----| 
|-----------------------------|--------------------------------| 
|-----------------------------|--------------------------------| 
|-----------------------------|--------------------------------| 
 
| 
|   PM--------------------------------------------| 
| E S S S S  S  S E.   E.   E   +E  S S S S  S  S Q       Q 
 
|-----------------------------|--------------------------------| 
|-----------------------------|---------------------------6s===| 
|-----------------------------|--------------------------------| 
|-----------------------------|--------------------------------| 
|---0-0-0-0--0--0-0----0----0-|-(0)-0-0-0-0--0--0-0------------| 
|---0-0-0-0--0--0-0----0----0-|-(0)-0-0-0-0--0--0-0------------| 
 
| 
|   PM------------------------------------------------------| 
| E S S S S  S  S E.   E.   E   +E  S S S S  S  S E.   E.   E 
 
|-----------------------------|--------------------------------| 
|-----------------------------|--------------------------------| 
|-----------------------------|--------------------------------| 
|-----------------------------|--------------------------------| 
|---0-0-0-0--0--0-0----0----0-|-(0)-0-0-0-0--0--0-0----0----0--| 
|---0-0-0-0--0--0-0----0----0-|-(0)-0-0-0-0--0--0-0----0----0--| 
 

  Bbsus2                     G5 
     E  E  E  E   E  E  E  E    E  E  E  E   E  E  E  E 
 
|---------------0----------|---------------0----------| 
|--------6---------6-----6-|--------6---------6-----6-| 
|--7--7----(7)--------7----|--7--7----(7)--------7----| 
|--------------------------|--------------------------| 
|--------------------------|--------------------------| 
|--------------------------|--------------------------| 
 
| 
|  E  E  E  E   E  E  E  E    E  E  E  E   E  E  E  E 
 
|--------------------------|--------------------------| 
|-13-13-13-13--13-13-13-13-|-11-11-11-11--11-11-11-11-| 
|--------------------------|--------------------------| 
|--------------------------|--------------------------| 
|--------------------------|--------------------------| 
|--------------------------|--------------------------| 
 
| 
|  E  E  E  E   E  E  E  E    E  E  E  E   E  E  E  E 
 
|--------------------------|--------------------------| 
|--------------------------|--------------------------| 
|--------------------------|--------------------------| 
|-10-10-10-10--10-10-10-10-|--5--5--5--5---5--5--5--5-| 
|--8--8--8--8---8--8--8--8-|--5--5--5--5---5--5--5--5-| 
|--8--8--8--8---8--8--8--8-|--5--5--5--5---5--5--5--5-| 
 

  D5 
     E  E  E  E   E  E  E  E   E E E  E  E E E E 
 
|---------------0----------|-----------0-------| 
|--------6---------6-----6-|-----6-------6---6-| 
|--7--7----(7)--------7----|-7-7---(7)-----7---| 
|--------------------------|-------------------| 
|--------------------------|-------------------| 
|--------------------------|-------------------| 
 
| 
|  E  E  E  E   E  E  E  E   E E E  E  E E Q 
 
|--------------------------|-------------------| 
|-11-10-10-10--10-10-10-10-|-6-6-6--6--5-5-6s==| 
|--------------------------|-------------------| 
|--------------------------|-------------------| 
|--------------------------|-------------------| 
|--------------------------|-------------------| 
 
| 
|  E  E  E  E   E  E  E  E   E E E  E  E E E E 
 
|--------------------------|-------------------| 
|--------------------------|-------------------| 
|--------------------------|-------------------| 
|--0--0--0--0---0--0--0--0-|-0-0-0--0--0-0-0-0-| 
|--0--0--0--0---0--0--0--0-|-0-0-0--0--0-0-0-0-| 
|--0--0--0--0---0--0--0--0-|-0-0-0--0--0-0-0-0-| 
 

  Bbsus2                     G5 
     E  E  E  E   E  E  E  E    E  E  E  E   E  E  E  E 
 
|---------------0----------|---------------0----------| 
|--------6---------6-----6-|--------6---------6-----6-| 
|--7--7----(7)--------7----|--7--7----(7)--------7----| 
|--------------------------|--------------------------| 
|--------------------------|--------------------------| 
|--------------------------|--------------------------| 
 
| 
|  E  E  E  E   E  E  E  E    E  E  E  E   E  E  E  E 
 
|--------------------------|--------------------------| 
|-13-13-13-13--13-13-13-13-|-11-11-11-11--11-10-10-10-| 
|--------------------------|--------------------------| 
|--------------------------|--------------------------| 
|--------------------------|--------------------------| 
|--------------------------|--------------------------| 
 
| 
|  E  E  E  E   E  E  E  E    E  E  E  E   E  E  E  E 
 
|--------------------------|--------------------------| 
|--------------------------|--------------------------| 
|--------------------------|--------------------------| 
|-10-10-10-10--10-10-10-10-|--5--5--5--5---5--5--5--5-| 
|--8--8--8--8---8--8--8--8-|--5--5--5--5---5--5--5--5-| 
|--8--8--8--8---8--8--8--8-|--5--5--5--5---5--5--5--5-| 
 

  D5 
    E E   E    E    E  E    E E    E  E   E    E    E  E    E E 
 
|-----------------0-----------|-------------------0------------| 
|-------6------------6------6-|---------6------------6------6--| 
|-7-7-------(7)-----------7---|--7--7-------(7)-----------7----| 
|-----------------------------|--------------------------------| 
|-----------------------------|--------------------------------| 
|-----------------------------|--------------------------------| 
 
| 
|   PM------------------------------------------------------| 
| E S S S S  S  S E.   E.   E   +E  S S S S  S  S E.   E.   E 
 
|-----------------------------|--------------------------------| 
|-----------------------------|--------------------------------| 
|-----------------------------|--------------------------------| 
|-----------------------------|--------------------------------| 
|---0-0-0-0--0--0-0----0----0-|-(0)-0-0-0-0--0--0-0----0----0--| 
|---0-0-0-0--0--0-0----0----0-|-(0)-0-0-0-0--0--0-0----0----0--| 
 
| 
|   PM------------------------------------------------------| 
| E S S S S  S  S E.   E.   E   +E  S S S S  S  S E.   E.   E 
 
|-----------------------------|--------------------------------| 
|-----------------------------|--------------------------------| 
|-----------------------------|--------------------------------| 
|-----------------------------|--------------------------------| 
|---0-0-0-0--0--0-0----0----0-|-(0)-0-0-0-0--0--0-0----0----0--| 
|---0-0-0-0--0--0-0----0----0-|-(0)-0-0-0-0--0--0-0----0----0--| 
 

     E  E   E    E    E  E    E E 
 
|-------------------0-----------| 
|---------6------------6------6-| 
|--7--7-------(7)-----------7---| 
|-------------------------------| 
|-------------------------------| 
|-------------------------------| 
 
| 
|  PM---------------------------- 
| +E  S S S S  S  S E.   E.   E 
 
|-------------------------------| 
|-------------------------------| 
|-------------------------------| 
|-------------------------------| 
|-(0)-0-0-0-0--0--0-0----0----0-| 
|-(0)-0-0-0-0--0--0-0----0----0-| 
 
| 
|  PM---------------------------- 
| +E  S S S S  S  S E.   E.   E 
 
|-------------------------------| 
|-------------------------------| 
|-------------------------------| 
|-------------------------------| 
|-(0)-0-0-0-0--0--0-0----0----0-| 
|-(0)-0-0-0-0--0--0-0----0----0-| 
 

                                  Build Up 
                                   Slower Q=138 
                                   D5 
   E  E   E    E    E  E    E E    W           W 
 
|-------------------0-----------||----------|--------| 
|---------6------------6------6-||----------|--------| 
|--7--7-------(7)-----------7---||----------|--------| 
|-------------------------------||----------|--------| 
|-------------------------------||----------|--------| 
|-------------------------------||----------|--------| 
 
| 
|-----------------------------| 
| +E  S S S S  S  S E.   E.   E    W          +W 
|-------------------------------||----------|--------| 
|-------------------------------||----------|--------| 
|-------------------------------||----------|--------| 
|-------------------------------||-0--------|-(0)----| 
 
|-(0)-0-0-0-0--0--0-0----0----0-||-0--------|-(0)----| 
|-(0)-0-0-0-0--0--0-0----0----0-||-0--------|-(0)----| 
 
| 
|-----------------------------| 
| +E  S S S S  S  S E.   E.   E    W          +W 
|-------------------------------||----------|--------| 
|-------------------------------||----------|--------| 
|-------------------------------||----------|--------| 
|-------------------------------||-0--------|-(0)----| 
 
|-(0)-0-0-0-0--0--0-0----0----0-||-0--------|-(0)----| 
|-(0)-0-0-0-0--0--0-0----0----0-||-0--------|-(0)----| 
 

  (guitar I) 
      
PM----------------|       PM----------------------| 
 
   E  S S S S S S E. E. E   +E  S S S S S S E S S S S S S 
 
|-------------------------|-------------------------------| 
|-------------------------|-------------------------------| 
|-------------------------|-------------------------------| 
|-------------------------|-------------------------------| 
|-----0-0-0-0-0-0-0--0--0-|-(0)-0-0-0-0-0-0-0-0-0-0-0-0-0-| 
|-----0-0-0-0-0-0-0--0--0-|-(0)-0-0-0-0-0-0-0-0-0-0-0-0-0-| 
 
| 
| (guitar II) 
| +W                        +W 
 
|-------------------------|-------------------------------| 
|-------------------------|-------------------------------| 
|-------------------------|-------------------------------| 
|-(0)---------------------|-(0)---------------------------| 
|-(0)---------------------|-(0)---------------------------| 
|-(0)---------------------|-(0)---------------------------| 
 

  (guitars I, II) 
   
PM--------------------|     PM----------------------| 
 
  S S S S S S S S E. E. E   E S S S S S S E S S S S S S 
 
|-------------------------|-----------------------------| 
|-------------------------|-----------------------------| 
|-------------------------|-----------------------------| 
|-------------------------|-----------------------------| 
|-0-0-0-0-0-0-0-0-0--0--0-|---0-0-0-0-0-0-0-0-0-0-0-0-0-| 
|-0-0-0-0-0-0-0-0-0--0--0-|---0-0-0-0-0-0-0-0-0-0-0-0-0-| 
 

                         6/4 
   
PM------------------| 
 
  E S S S S S S E. E. E   W. 
 
|-----------------------|-------|| 
|-----------------------|-------|| 
|-----------------------|-------|| 
|-----------------------|-------|| 
|-0-0-0-0-0-0-0-0--0--0-|-------|| 
|-0-0-0-0-0-0-0-0--0--0-|-------|| 
 
              "Disrespect your surroundings!" 

(breakdown) 
  D5 
 4/4 
  PM|   PM|   PM|   PM|     PM|   PM|   PM------------| 
  S S E S S E S S E S S E   S S E S S E S S S S S S S S 
 
|-------------------------|-----------------------------| 
|-------------------------|-----------------------------| 
|-------------------------|-----------------------------| 
|-------------------------|-----------------------------| 
|-0-0---0-0---0-0---0-0---|-0-0---0-0---0-0-0-0-0-0-0-0-| 
|-0-0---0-0---0-0---0-0---|-0-0---0-0---0-0-0-0-0-0-0-0-| 
 

  PM|   PM|   PM|   PM|     PM|   PM|   PM| 
  S S E S S E S S E S S E   S S E S S E S S Q. 
 
|-------------------------|----------------------| 
|-------------------------|----------------------| 
|-------------------------|----------------------| 
|-------------------------|----------------------| 
|-0-0---0-0---0-0---0-0---|-0-0---0-0---0-0------| 
|-0-0---0-0---0-0---0-0---|-0-0---0-0---0-0------| 
 

     
PM--------------------------------| 
 
    S S S S S S S S H      +E  E Q  S Q.. 
 
||-----------------------|-------------------|| 
||o----------------------|------------------o|| 
||-----------------------|-------------------|| 
||-----------------------|-------------------|| 
||o-0-0-0-0-0-0-0-0-0----|-(0)-0-0--0-0-----o|| 
||--0-0-0-0-0-0-0-0-0----|-(0)-0-0--0-0------|| 
 

     
PM--------------|         PM-----| 
 
    S S S S S S S S Q  Q    E E Q  S S Q. 
 
||------------------------|------------------|| 
||o-----------------------|-----------------o|| 
||------------------------|------------------|| 
||------------------------|------------------|| 
||o-0-0-0-0-0-0-0-0-0-----|---0-0--0-0------o|| 
||--0-0-0-0-0-0-0-0-0-----|---0-0--0-0-------|| 
 

(release) 
    N.C. 
    (guitar III) (* noted indicate delay) 
                         * * *   * * *     * *  * * * * *   * * * * * * * * 
      W                  E E E E E E E E   E E E  E E E E E   E E E E E E E E 
 
||-----------------|---8-8-8-8---------|------------------|------------------|| 
||o----------------|-----------8-8-8-8-|------------------|-----------------o|| 
||-----------------|-------------------|-7-7-7--7-7-7-7-7-|-7-7-7-7-7-7-7-7--|| 
||-----------------|-------------------|------------------|------------------|| 
||o----------------|-------------------|------------------|-----------------o|| 
||-----------------|-------------------|------------------|------------------|| 
 
| 
|   (guitar IV) 
|   E E Q.   E E E   a E E E E E E E E   E E Q.     E E E   E E E E E E E E 
 
||-----------------|-------------------|------------------|------------------|| 
||o----------------|-------------------|------------------|-----------------o|| 
||-----------------|-------------------|------------------|------------------|| 
||------0------0---|-------0---5-7-5-7-|-----0--------0---|-----0-------0----|| 
||o-1-1------1---1-|-1s3-3---3---------|-5-5--------5---5-|-8-8---8-7-7---7-o|| 
||-----------------|-------------------|------------------|------------------|| 
 

   "It's like speaking in.." 
    N.C. 
    (guitar III) 
                         * * *   * * *     * *  * * * * *   * * * * * * * * 
      W                  E E E E E E E E   E E E  E E E E E   E E E E E E E E  4x 
 
||-----------------|---8-8-8-8---------|------------------|------------------|| 
||o----------------|-----------8-8-8-8-|------------------|-----------------o|| 
||-----------------|-------------------|-7-7-7--7-7-7-7-7-|-7-7-7-7-7-7-7-7--|| 
||-----------------|-------------------|------------------|------------------|| 
||o----------------|-------------------|------------------|-----------------o|| 
||----------------|-------------------|------------------|------------------|| 
 
| 
|   (guitar IV) 
|   E E Q.   E E E   a E E E E E E E E   E E Q.     E E E   E E E E E E E E  4x 
 
||-----------------|-------------------|------------------|------------------|| 
||o----------------|-------------------|------------------|-----------------o|| 
||-----------------|-------------------|------------------|------------------|| 
||------0------0---|-------0---5-7-5-7-|-----0--------0---|-----0-------0----|| 
||o-1-1------1---1-|-1s3-3---3---------|-5-5--------5---5-|-8-8---8-7-7---7-o|| 
||-----------------|-------------------|------------------|------------------|| 
 
| 
|   (guitar V) 
|   W                  W                 W                  H       H        4x 
 
||-----------------|-------------------|------------------|------------------|| 
||o----------------|-------------------|------------------|-----------------o|| 
||-----------------|-------------------|------------------|------------------|| 
||-----------------|-------------------|------------------|------------------|| 
||o-1--------------|---3---------------|-5----------------|-8-------7-------o|| 
||-----------------|-------------------|------------------|------------------|| 
 

(outro) 
  N.C. 
                           * * *   * * * 
     W                    E  E E E E E E E 
 
|------------------|----8--8-8-8---------| 
|------------------|-------------8-8-8-8-| 
|------------------|---------------------| 
|------------------|---------------------| 
|------------------|---------------------| 
|------------------|---------------------| 
 
| 
|  E  E Q.   E E E   a  E  E E E E E E E 
 
|------------------|---------------------| 
|------------------|---------------------| 
|------------------|---------------------| 
|-------0------0---|---------0---5-7-5-7-| 
|--1--1------1---1-|-1s=3--3---3---------| 
|------------------|---------------------| 
 
| 
|  W                    W 
 
|------------------|---------------------| 
|------------------|---------------------| 
|------------------|---------------------| 
|-(0)--------------|---(2)---------------| 
|--1---------------|----3----------------| 
|------------------|---------------------| 
 

      * *  * * * * *   * * * * * * * * 
     E  E E  E E E E E   E E E E E E E E 
 
|--------------------|-----------------| 
|--------------------|-----------------| 
|--7--7-7--7-7-7-7-7-|-7-7-7-7-7-7-7-7-| 
|--------------------|-----------------| 
|--------------------|-----------------| 
|--------------------|-----------------| 
 
| 
|  E  E Q.     E E E   E E E E E E E E 
 
|--------------------|-----------------| 
|--------------------|-----------------| 
|--------------------|-----------------| 
|-------0--------0---|-----0-------0---| 
|--5--5--------5---5-|-8-8---8-7-7---7-| 
|--------------------|-----------------| 
 
| 
|  W                   H       H 
 
|--------------------|-----------------| 
|--------------------|-----------------| 
|--------------------|-----------------| 
|-(3)----------------|-3-------2-------| 
|--5-----------------|-----------------| 
|--------------------|-----------------| 
 

                           * * *   * * * 
     W                    E  E E E E E E E 
 
|------------------|----8--8-8-8---------| 
|------------------|-------------8-8-8-8-| 
|------------------|---------------------| 
|------------------|---------------------| 
|------------------|---------------------| 
|------------------|---------------------| 
 
| 
|  E  E Q.   E E E   a  E  E E E E E E E 
 
|------------------|---------------------| 
|------------------|---------------------| 
|------------------|---------------------| 
|-------0------0---|---------0---5-7-5-7-| 
|--1--1------1---1-|-1s=3--3---3---------| 
|------------------|---------------------| 
 
| 
|  W                    W 
 
|------------------|---------------------| 
|------------------|---------------------| 
|------------------|---------------------| 
|-(7)--------------|---(5)---------------| 
|--8---------------|----7----------------| 
|------------------|---------------------| 
 

      * *  * * * * *   * * * * * * * * 
     E  E E  E E E E E   E E E E E E E E 
 
|--------------------|-----------------| 
|--------------------|-----------------| 
|--7--7-7--7-7-7-7-7-|-7-7-7-7-7-7-7-7-| 
|--------------------|-----------------| 
|--------------------|-----------------| 
|--------------------|-----------------| 
 
| 
|  E  E Q.     E E E   E E E E E E E E 
 
|--------------------|-----------------| 
|--------------------|-----------------| 
|--------------------|-----------------| 
|-------0--------0---|-----0-------0---| 
|--5--5--------5---5-|-8-8---8-7-7---7-| 
|--------------------|-----------------| 
 
| 
|  W                   H       H 
 
|--------------------|-----------------| 
|--------------------|-----------------| 
|--------------------|-----------------| 
|-(3)----------------|-3-------2-------| 
|--5-----------------|-----------------| 
|--------------------|-----------------| 
 

                             * * *   * * * 
       W                    E  E E E E E E E 
 
||-------------------|----8--8-8-8---------| 
||o------------------|-------------8-8-8-8-| 
||-------------------|---------------------| 
||-------------------|---------------------| 
||o------------------|---------------------| 
||-------------------|---------------------| 
 
| 
|    E  E Q.   E E E   a  E  E E E E E E E 
 
||-------------------|---------------------| 
||o------------------|---------------------| 
||-------------------|---------------------| 
||--------0------0---|---------0---5-7-5-7-| 
||o--1--1------1---1-|-1s=3--3---3---------| 
||-------------------|---------------------| 
 
| 
|    W                    W 
 
||-------------------|---------------------| 
||o------------------|---------------------| 
||-------------------|---------------------| 
||--(0)--------------|---(2)---------------| 
||o--1---------------|----3----------------| 
||-------------------|---------------------| 
 

      * *  * * * * *   * * * * * * * * 
     E  E E  E E E E E   E E E E E E E E 
 
|--------------------|------------------|| 
|--------------------|-----------------o|| 
|--7--7-7--7-7-7-7-7-|-7-7-7-7-7-7-7-7--|| 
|--------------------|------------------|| 
|--------------------|-----------------o|| 
|--------------------|------------------|| 
 
| 
|  E  E Q.     E E E   E E E E E E E E 
 
|--------------------|------------------|| 
|--------------------|-----------------o|| 
|--------------------|------------------|| 
|-------0--------0---|-----0-------0----|| 
|--5--5--------5---5-|-8-8---8-7-7---7-o|| 
|--------------------|------------------|| 
 
| 
|  W                   H       H 
 
|--------------------|------------------|| 
|--------------------|-----------------o|| 
|--------------------|------------------|| 
|-(3)----------------|-3-------2--------|| 
|--5-----------------|-----------------o|| 
|--------------------|------------------|| 
 


 h   - hammer-on 
 p   - pull-off 
 b   - bend 
 pb  - pre-bend 
 r   - bend release (if no number after the r, then release immediately) 
 /\  - slide into or out of (from/to "nowhere") 
 s   - legato slide 
 S   - shi 
		  

See also:

tabs Dj Tiesto - lethal industry tabs Dj Tiesto - Welcome To Ibiza tabs OMD - Enola Gay tabs Plain White T's - Write You a Song tabs The Kooks - See the world tabs Current Swell - Young And Able
e-chords

Other versions:

tabs A Day to Remember - Resultados Da Pesquisa Mr. Highway's Thinking About The End
auto scroll beats size up size down change color hide chords drawings
tab show chords e-chords YouTube Clip e-chords hide all tabs e-chords go to top tab

share