A Day to Remember

Colder Than My Heart If You Can Imagine

A Day to Remember

tabs

by  GUSTSILVA

save to print version add songbook text version e-mail correct tuner
chordsukulelecavacokeyboardtabbassdrumsharmonicaflute Guitar Pro
close

there isn't a video lesson for this song

chords

Colder Than My Heart If You Can Imagine

	  		

                                            ^ 
     w                   w                    w 
 
d|-------------------|-------------------|---------------------| 
a|-------------------|-------------------|--(6)----------------| 
f|-------------------|-------------------|---5-----------------| 
c|--3----------------|--7----------------|---3-----------------| 
g|--5----------------|--8----------------|--(0)----------------| 
c|-------------------|-------------------|---------------------| 
 

   w                    w                   w 
 
---------------------|-------------------|-------------------| 
---------------------|-------------------|-------------------| 
---2-----------------|-------------------|-------------------| 
---3-----------------|--3----------------|--7----------------| 
--(0)----------------|--5----------------|--8----------------| 
---------------------|-------------------|-------------------| 
 

(main riff) 
 
   H.           S S S S      E.  S. S.          
-----------------------||----------------------------| 
-----------------------||----------------------------| 
-----------------------||*---------------------------| 
-----------------------||*---------7-----5-----------| 
---------------0-7-5-3-||---5---5-----5-----8--7--5--| 
---------------0-7-5-3-||----------------------------| 
 

 
   E.  S. S.              E.  S. S.           
---------------------------|----------------------------| 
---------------------------|----------------------------| 
---------------------------|----------------------------| 
---------7-----5-----------|---------7--8--7--5-----10--| 
--l---l-----5-----8--7--5--|--5---8--------------8------| 
---------------------------|----------------------------| 
 

 
          Q       Q       E.  S. S.          
--------------------------|---------------------------| 
--------------------------|---------------------------| 
--------------------------|---------------------------| 
---l--8--7--8----7--------|---------7-----5-----------| 
--------------------10----|--5---5-----5-----8--7--5--| 
--------------------------|---------------------------| 
 

 
   E.  S. S.                             
---------------------------|--------------------------| 
---------------------------|--------------------------| 
---------------------------|--------------------------| 
---------7-----5-----------|--------5-----5--7-----5--| 
--l---l-----5-----8--7--5--|--l--5-----5--------8-----| 
---------------------------|--------------------------| 
 

  e  e  e  q    e  q          w                   w 
 
-------------------------||--------------------|-------------------| 
-------------------------||--------------------|-------------------| 
------------------------*||*-------------------|-------------------| 
--l---------------------*||*-------------------|-------------------| 
-----8--7--8----7--5-----||--------------------|-------------------| 
-------------------------||--------------------|-------------------| 
 

(main guitars part) 
(starting from the very beginning) 

(guitar 1) 
     w                   w                   w 
 
d|-------------------|-------------------|-------------------| 
a|-------------------|-------------------|-------------------| 
f|-------------------|-------------------|-------------------| 
c|-------------------|-------------------|-------------------| 
g|-------------------|-------------------|-------------------| 
c|-------------------|-------------------|-------------------| 
 

 
   W                   W                   T S. H.            
-------------------|-------------------|-----------------------| 
-------------------|-------------------|-----------------------| 
-------------------|-------------------|-----------------------| 
-------------------|--3----------------|--7-l--l------------l--| 
-------------------|--5----------------|--8-l--l------------l--| 
-------------------|-------------------|-----------------------| 
 

 
    T  S. H.                T S. H.                  Q      Q         
-------------------------|-----------------------||-------------------------| 
--(6)-l--l------------l--|-----------------------||-------------------------| 
---5--l--l------------l--|--2-l--l------------l--||*------------------------| 
---3--l--l------------l--|--3-l--l------------l--||*--0----0--0----0--0--0--| 
--(0)-l--l------------l--|-----------------------||---0----0--0----0--0--0--| 
-------------------------|-----------------------||---0----0--0----0--0--0--| 
 

 
   Q      Q              Q        Q            
------------------------|------------------------------| 
------------------------|------------------------------| 
------------------------|------------------------------| 
--0----0--0----0--0--0--|--10----10--10----10--10--10--| 
--0----0--0----0--0--0--|---8-----8---8-----8---8---8--| 
--0----0--0----0--0--0--|---8-----8---8-----8---8---8--| 
 

 
   Q      Q             Q      Q             Q      Q         
------------------------|------------------------|------------------------| 
------------------------|------------------------|------------------------| 
------------------------|------------------------|------------------------| 
--7----7--7----7--7--7--|--0----0--0----0--0--0--|--0----0--0----0--0--0--| 
--5----5--5----5--5--5--|--0----0--0----0--0--0--|--0----0--0----0--0--0--| 
--5----5--5----5--5--5--|--0----0--0----0--0--0--|--0----0--0----0--0--0--| 
 

 
    Q        Q                Q      Q         
------------------------------|-------------------------|| 
------------------------------|-------------------------|| 
------------------------------|------------------------*|| 
--10----10--10----10--10--10--|--7----7--7----7--7--7--*|| 
---8-----8---8-----8---8---8--|--5----5--5----5--5--5---|| 
---8-----8---8-----8---8---8--|--5----5--5----5--5--5---|| 
 

 
    S S   S S   H               S S   S S      
--------------------------|----------------------------| 
--------------------------|----------------------------| 
*-------------------------|----------------------------| 
*----------------7--------|--l-------------------------| 
---0-0-0--0-0-0--8--------|--l--0--0-0-0--0-0----------| 
---0-0-0--0-0-0-----------|-----0--0-0-0--0-0-8--5--0--| 
 

 
   S S   S S   E.  S                       
----------------------------|--------------------------| 
----------------------------|--------------------------| 
----------------------------|--------------------------| 
----------------7-----------|--------------------------| 
--8-8-8--8-8-8--8---0-5--5--|--l--5--5--5--5--5--5--5--| 
--8-8-8--8-8-8------0-5--5--|--l--5--5--5--5--5--5--5--| 
 

 
   S S   S S   H               S S   S S      
-------------------------|----------------------------| 
-------------------------|----------------------------| 
-------------------------|----------------------------| 
----------------7--------|--l-------------------------| 
--0-0-0--0-0-0--8--------|--l--0--0-0-0--0-0----------| 
--0-0-0--0-0-0-----------|-----0--0-0-0--0-0-8--5--0--| 
 

  s s e  s s e  e.  s e  e     e  e  e  e  e  e  e  e        w 
 
----------------------------|---------------------------||--------------------| 
----------------------------|---------------------------||--------------------| 
----------------------------|--------------------------*||--------------------| 
----------------7-----------|--------------------------*||--10----------------| 
--8-8-8--8-8-8--8---0-5--5--|--l--5--5--5--5--5--5--5---||---8----------------| 
--8-8-8--8-8-8------0-5--5--|--l--5--5--5--5--5--5--5---||---8----------------| 
 

   w                   w                   e  h        q. 
 
--------------------|-------------------|---------------------| 
--------------------|-------------------|---------------------| 
--------------------|-------------------|---------------------| 
---l----------------|--7----------------|--7------------------| 
---l----------------|--5----------------|--5------------------| 
---l----------------|--5----------------|--5------------------| 
 

 
     Q      Q             Q      Q             Q      Q         
|-------------------------|------------------------|------------------------| 
|-------------------------|------------------------|------------------------| 
|*------------------------|------------------------|------------------------| 
|*--0----0--0----0--0--0--|--0----0--0----0--0--0--|--3----3--3----3--3--3--| 
|---0----0--0----0--0--0--|--0----0--0----0--0--0--|--3----3--3----3--3--3--| 
|---0----0--0----0--0--0--|--0----0--0----0--0--0--|--3----3--3----3--3--3--| 
 

 
   Q      Q             Q      Q             Q      Q         
------------------------|------------------------|------------------------| 
------------------------|------------------------|------------------------| 
------------------------|------------------------|------------------------| 
--3----3--3----3--3--3--|--5----5--5----5--5--5--|--5----5--5----5--5--5--| 
--3----3--3----3--3--3--|--5----5--5----5--5--5--|--5----5--5----5--5--5--| 
--3----3--3----3--3--3--|--5----5--5----5--5--5--|--5----5--5----5--5--5--| 
 

  q    e  q    e  e  e     q    e  q    e  e  e       q    h. 
 
------------------------|-------------------------||--------------------| 
------------------------|-------------------------||--------------------| 
------------------------|------------------------*||--------------------| 
--8----8--8----8--8--8--|--8----8--8----8--8--8--*||--------------------| 
--8----8--8----8--8--8--|--8----8--8----8--8--8---||--0-----------------| 
--8----8--8----8--8--8--|--8----8--8----8--8--8---||--0-----------------| 
 

 
   H                   Q      Q             Q      Q         
-----------------------|------------------------|------------------------| 
-----------------------|------------------------|------------------------| 
-----------------------|------------------------|------------------------| 
-----------------------|--0----0--0----0--0--0--|--0----0--0----0--0--0--| 
-----------0--7--5--3--|--0----0--0----0--0--0--|--0----0--0----0--0--0--| 
-----------0--7--5--3--|--0----0--0----0--0--0--|--0----0--0----0--0--0--| 
 

 
    Q        Q                Q      Q         
------------------------------|------------------------| 
------------------------------|------------------------| 
------------------------------|------------------------| 
--10----10--10----10--10--10--|--7----7--7----7--7--7--| 
---8-----8---8-----8---8---8--|--5----5--5----5--5--5--| 
---8-----8---8-----8---8---8--|--5----5--5----5--5--5--| 
 

 
   Q      Q             Q      Q         
------------------------|------------------------| 
------------------------|------------------------| 
------------------------|------------------------| 
--0----0--0----0--0--0--|--0----0--0----0--0--0--| 
--0----0--0----0--0--0--|--0----0--0----0--0--0--| 
--0----0--0----0--0--0--|--0----0--0----0--0--0--| 
 

 
    Q        Q                Q      Q         
------------------------------|------------------------| 
------------------------------|------------------------| 
------------------------------|------------------------| 
--10----10--10----10--10--10--|--7----7--7----7--7--7--| 
---8-----8---8-----8---8---8--|--5----5--5----5--5--5--| 
---8-----8---8-----8---8---8--|--5----5--5----5--5--5--| 
 

 
     S S   S S   H               S S   S S      
|--------------------------|----------------------------| 
|--------------------------|----------------------------| 
|*-------------------------|----------------------------| 
|*----------------7--------|--l-------------------------| 
|---0-0-0--0-0-0--8--------|--l--0--0-0-0--0-0----------| 
|---0-0-0--0-0-0-----------|-----0--0-0-0--0-0-8--5--0--| 
 

 
   S S   S S   E.  S                       
----------------------------|--------------------------| 
----------------------------|--------------------------| 
----------------------------|--------------------------| 
----------------7-----------|--------------------------| 
--8-8-8--8-8-8--8---0-5--5--|--l--5--5--5--5--5--5--5--| 
--8-8-8--8-8-8------0-5--5--|--l--5--5--5--5--5--5--5--| 
 

 
   S S   S S   H               S S   S S      
-------------------------|----------------------------| 
-------------------------|----------------------------| 
-------------------------|----------------------------| 
----------------7--------|--l-------------------------| 
--0-0-0--0-0-0--8--------|--l--0--0-0-0--0-0----------| 
--0-0-0--0-0-0-----------|-----0--0-0-0--0-0-8--5--0--| 
 

  s s e  s s e  e.  s e  e     e  e  e  e  e  e  e  e        w 
 
----------------------------|---------------------------||--------------------| 
----------------------------|---------------------------||--------------------| 
----------------------------|--------------------------*||--------------------| 
----------------7-----------|--------------------------*||--10----------------| 
--8-8-8--8-8-8--8---0-5--5--|--l--5--5--5--5--5--5--5---||---8----------------| 
--8-8-8--8-8-8------0-5--5--|--l--5--5--5--5--5--5--5---||---8----------------| 
 

   w                   w                   e  h        q. 
 
--------------------|-------------------|---------------------| 
--------------------|-------------------|---------------------| 
--------------------|-------------------|---------------------| 
---l----------------|--7----------------|--l--l--------l------| 
---l----------------|--5----------------|--l--l--------l------| 
---l----------------|--5----------------|--l--l--------l------| 
 

 
     Q      Q             Q      Q             Q      Q         
|-------------------------|------------------------|------------------------| 
|-------------------------|------------------------|------------------------| 
|*------------------------|------------------------|------------------------| 
|*--0----0--0----0--0--0--|--0----0--0----0--0--0--|--3----3--3----3--3--3--| 
|---0----0--0----0--0--0--|--0----0--0----0--0--0--|--3----3--3----3--3--3--| 
|---0----0--0----0--0--0--|--0----0--0----0--0--0--|--3----3--3----3--3--3--| 
 

 
   Q      Q             Q      Q             Q      Q         
------------------------|------------------------|------------------------| 
------------------------|------------------------|------------------------| 
------------------------|------------------------|------------------------| 
--3----3--3----3--3--3--|--5----5--5----5--5--5--|--5----5--5----5--5--5--| 
--3----3--3----3--3--3--|--5----5--5----5--5--5--|--5----5--5----5--5--5--| 
--3----3--3----3--3--3--|--5----5--5----5--5--5--|--5----5--5----5--5--5--| 
 

  q    e  q    e  e  e     q    e  q    e  e  e       q    h. 
 
------------------------|-------------------------||--------------------| 
------------------------|-------------------------||--------------------| 
------------------------|------------------------*||--------------------| 
--8----8--8----8--8--8--|--8----8--8----8--8--8--*||--------------------| 
--8----8--8----8--8--8--|--8----8--8----8--8--8---||--0-----------------| 
--8----8--8----8--8--8--|--8----8--8----8--8--8---||--0-----------------| 
 

  w                   s s s s e  e  h           s s s s e  e  h 
 
-------------------|-------------------------|-------------------------| 
-------------------|-------------------------|-------------------------| 
-------------------|-------------------------|-------------------------| 
-------------------|-------------------------|-------------------------| 
-------------------|--0-0-0-0-0--------------|--0-0-0-0-0--------------| 
-------------------|--0-0-0-0-0--------------|--0-0-0-0-0--------------| 
 

  s s s s e  e  h           s s s s e  e  h 
 
-------------------------|-------------------------| 
-------------------------|-------------------------| 
-------------------------|-------------------------| 
-------------------------|-------------------------| 
--0-0-0-0-0--------------|--0-0-0-0-0--------------| 
--0-0-0-0-0--------------|--0-0-0-0-0--------------| 
 

 
                                       
|---------------------------|--------------------------| 
|---------------------------|--------------------------| 
|*--------------------------|--------------------------| 
|*--------------------------|--------------------------| 
|---0--0--0--0--0--0--0--0--|--0--0--0--0--0--0--0--0--| 
|---0--0--0--0--0--0--0--0--|--0--0--0--0--0--0--0--0--| 
 

 
                                     
--------------------------|---------------------------|| 
--------------------------|---------------------------|| 
--------------------------|--------------------------*|| 
--------------------------|--------------------------*|| 
--8--8--8--8--8--8--8--8--|--5--5--5--5--5--5--5--5---|| 
--8--8--8--8--8--8--8--8--|--5--5--5--5--5--5--5--5---|| 
 

 
                                      
---------------------------|--------------------------| 
---------------------------|--------------------------| 
*--------------------------|--------------------------| 
*--------0--------0-----0--|--------0--------0-----0--| 
---0--0--0--0--0--0--0--0--|--0--0--0--0--0--0--0--0--| 
---0--0--0--0--0--0--0--0--|--0--0--0--0--0--0--0--0--| 
 

  e  e  e  e  e  e  e  e     e  e  e  e  e  e  e  e       q     h. 
 
--------------------------|---------------------------||---------------------| 
--------------------------|---------------------------||---------------------| 
--------------------------|--------------------------*||---------------------| 
--------8--------8-----8--|--------5--------5-----5--*||--5\-----------------| 
--8--8--8--8--8--8--8--8--|--5--5--5--5--5--5--5--5---||--5\-----------------| 
--8--8--8--8--8--8--8--8--|--5--5--5--5--5--5--5--5---||--5\-----------------| 
 

 
   W                   Q    H         Q                       
-------------------|-----------------------|--------------------------| 
-------------------|-----------------------|--------------------------| 
-------------------|-----------------------|--------------------------| 
-------------------|-----------------------|--3--3--3--3--3--3--3--3--| 
-------------------|----------------12\----|--3--3--3--3--3--3--3--3--| 
-------------------|----------------12\----|--3--3--3--3--3--3--3--3--| 
 

 
                                     
--------------------------|--------------------------| 
--------------------------|--------------------------| 
--------------------------|--------------------------| 
--3--3--3--3--3--3--3--3--|--5--5--5--5--5--5--5--5--| 
--3--3--3--3--3--3--3--3--|--5--5--5--5--5--5--5--5--| 
--3--3--3--3--3--3--3--3--|--5--5--5--5--5--5--5--5--| 
 

 
                                     
--------------------------|--------------------------| 
--------------------------|--------------------------| 
--------------------------|--------------------------| 
--5--5--5--5--5--5--5--5--|--8--8--8--8--8--8--8--8--| 
--5--5--5--5--5--5--5--5--|--8--8--8--8--8--8--8--8--| 
--5--5--5--5--5--5--5--5--|--8--8--8--8--8--8--8--8--| 
 

 
                                     
--------------------------|--------------------------| 
--------------------------|--------------------------| 
--------------------------|--------------------------| 
--8--8--8--8--8--8--8--8--|--0--0--0--0--0--0--0--0--| 
--8--8--8--8--8--8--8--8--|--0--0--0--0--0--0--0--0--| 
--8--8--8--8--8--8--8--8--|--0--0--0--0--0--0--0--0--| 
 

 
                                     
--------------------------|--------------------------| 
--------------------------|--------------------------| 
--------------------------|--------------------------| 
--0--0--0--0--0--0--0--0--|--3--3--3--3--3--3--3--3--| 
--0--0--0--0--0--0--0--0--|--3--3--3--3--3--3--3--3--| 
--0--0--0--0--0--0--0--0--|--3--3--3--3--3--3--3--3--| 
 

 
                                     
--------------------------|--------------------------| 
--------------------------|--------------------------| 
--------------------------|--------------------------| 
--3--3--3--3--3--3--3--3--|--5--5--5--5--5--5--5--5--| 
--3--3--3--3--3--3--3--3--|--5--5--5--5--5--5--5--5--| 
--3--3--3--3--3--3--3--3--|--5--5--5--5--5--5--5--5--| 
 

 
                                     
--------------------------|--------------------------| 
--------------------------|--------------------------| 
--------------------------|--------------------------| 
--5--5--5--5--5--5--5--5--|--8--8--8--8--8--8--8--8--| 
--5--5--5--5--5--5--5--5--|--8--8--8--8--8--8--8--8--| 
--5--5--5--5--5--5--5--5--|--8--8--8--8--8--8--8--8--| 
 

  e  e  e  e  e  e  e  e     w                   w 
 
--------------------------|-------------------|-------------------| 
--------------------------|-------------------|-------------------| 
--------------------------|-------------------|-------------------| 
--5--5--5--5--5--5--5--5--|--0----------------|--l----------------| 
--5--5--5--5--5--5--5--5--|--0----------------|--l----------------| 
--5--5--5--5--5--5--5--5--|--0----------------|--l----------------| 
 

  w                   w 
-------------------|-------------------|| 
-------------------|-------------------|| 
-------------------|-------------------|| 
--l----------------|--l----------------|| 
--l----------------|--l----------------|| 
--l----------------|--l----------------|| 

W - whole 
H - half 
Q - quarter 
E|- 8th 
S - 16th 
T - 32nd 
X - 64th 
. - note dotted 
|-n-|  - n-tuplets 

L - tied note 
X - dead note 
G|- grace note 
(n) - ghost note 
> - accentuded note 
Nh - natural harmonic 
Ah - artificial harmonic 
Th - tapped harmonic 
Sh - semi harmonic 
Ph - pitch harmonic 
H - hammer on 
P - pull off 
B|- bend 
Br - bendrelease 
Pb - prebend 
Pbr - prebendrelease 
Brb - bendreleasebend 
\n/ - tremolo bar dip 
\n - tremolo bar dive 
-/n - tremolo bar release up 
/n\ - tremolo bar inverted dip 
/n - tremolo bar return 
-\n - tremolo bar release down 
S - shift slide 
S - legato slide 
/ -  slide into from below or out of upwards 
\ -  slide into from above or out of downwards 
~ - vibrato 
W - wide vibrato 
Tr - trill 
Tp - tremolo picking 
T - tapping 
S - slap 
P - pop 
< - fade in 
^ - brush up 
V - brush down 
		  

See also:

tabs MC Hammer - Can't Touch This tabs Plain White T's - Rhythm Of Love tabs Current Swell - Young And Able tabs Phoenix - Lisztomania tabs Plain White T's - Hey There Delilah (ver. 2) tabs Fort Minor - High road
e-chords

Other versions:

tabs A Day to Remember - Colder Than My Heart If You Can Imagine
auto scroll beats size up size down change color hide chords drawings
tab show chords e-chords YouTube Clip e-chords hide all tabs e-chords go to top tab

share