A Day to Remember

All Signs Point To Lauderlade

A Day to Remember

tabs

by  HUGO_RODRIGUES

save to print version add songbook text version e-mail correct tuner
chordsukulelecavacokeyboardtabbassdrumsharmonicaflute Guitar Pro
close

there isn't a video lesson for this song

chords

All Signs Point To Lauderlade

	  		
"I hate this town..." 

abafadas: 
 
E|----------------------------------------| 
B|----------------------------------------| 
G|------3-----------------3---------------| 
D|------3-----------------3---------------| 
A|--1---1---5---3-----1---1---3-1-3-1-3---| 
E|--1-------5---3-----1-------3-1-3-1-3---| 
 

Intro: 
 
E|----------------------------------------| 
B|----------------------------------------| 
G|------3-----------------3---------------| 
D|------3-----------------3---------------| 
A|--1---1---5---3-----1---1---3-1-3-1-3---| 
E|--1-------5---3-----1-------3-1-3-1-3---| 
 

Verso 1: "Remember when I tried..." 
 
E|-------------------| 
B|-------------------| 
G|-------------------| 
D|-------------------| 
A|--1---5---1---5-3--| 
E|--1---5---1---5-3--| 
 

"But now I never know..." 
 
E|-----------------| 
B|-----------------| 
G|-----------------| 
D|-----------------| 
A|--1---5---1---3--| 
E|--1---5---1---3--| 
 

Refrão: 
 
E|----------------------------------------| 
B|----------------------------------------| 
G|------3-----------------3---------------| 
D|------3-----------------3---------------| 
A|--1---1---5---3-----1---1---3-1-3-1-3---| 
E|--1-------5---3-----1-------3-1-3-1-3---| 
 

(Verso 1 / Verso 2) 

(Refrão) 

Pós-Refrão: 
 
E|----------------------------------------| 
B|----------------------------------------| 
G|------3-----------------3---------------| 
D|------3-----------------3---------------| 
A|--1---1---5---3-----1---1---3-1-3-1-3---| 
E|--1-------5---3-----1-------3-1-3-1-3---| 
 

"what a world, come on never bring me down" 
 
E|--------------| 
B|--------------| 
G|--------------|  (2x) 
D|--------------| 
A|---5---3---1--| 
E|---5---3---1--|  
 

"You and me we stand for something" 
 
E|----------------| 
B|----------------| 
G|------3---------| 
D|------3---------| 
A|---5--1--1---3--| 
E|---5-----1---3--| 
 

Refrão: 
 
E|----------------------------------------| 
B|----------------------------------------| 
G|------3-----------------3---------------| 
D|------3-----------------3---------------| 
A|--1---1---5---3-----1---1---3-1-3-1-3---| 
E|--1-------5---3-----1-------3-1-3-1-3---| 
 

Pós-Refrão: 
 
E|----------------------------------------| 
B|----------------------------------------| 
G|------3-----------------3---------------| 
D|------3-----------------3---------------| 
A|--1---1---5---3-----1---1---3-1-3-1-3---| 
E|--1-------5---3-----1-------3-1-3-1-3---| 
 

 
E|---------| 
B|---------| 
G|---------| 
D|---------| 
A|--1-1-1--| 
E|--1-1-1--| 
		  

See also:

tabs Dj Tiesto - lethal industry tabs Dj Tiesto - Welcome To Ibiza tabs OMD - Enola Gay tabs Plain White T's - Write You a Song tabs The Kooks - See the world tabs Current Swell - Young And Able
e-chords

Other versions:

tabs A Day to Remember - All Signs Point To Lauderlade
auto scroll beats size up size down change color hide chords drawings
tab show chords e-chords YouTube Clip e-chords hide all tabs e-chords go to top tab

share