A Change Of Pace

Take Care

A Change Of Pace

tabs

by  FERNSANTANA

save to print version add songbook text version e-mail correct tuner
chordsukulelecavacokeyboardtabbassdrumsharmonicaflute Guitar Pro
close

there isn't a video lesson for this song

chords

Take Care

	  		
(Intro) 

(guitarra 1) 
 
E|---------15--------------15------------------------------| 
B|-10--13------13------13------10--10-10-10-10-10-10-10----| 
G|-----------------12--------------------------------------| 
D|---------------------------------------------------------| 
A|---------------------------------------------------------| 
E|---------------------------------------------------------| 
 

(guitarra 2) 
 
E|---------------------------------------------------------| 
B|---------------------------------------------------------| 
G|---------------------------------------------------------| 
D|-7--7--7--7------5---5---5---3--3--3--3--3--3--3---------| 
A|-7--7--7--7------5---5---5---3--3--3--3--3--3--3---------| 
E|-7--7--7--7------5---5---5---3--3--3--3--3--3--3---------| 
 

guitarra 1) 
 
E|---------------------------------------------------------|(2x) 
B|-14-14-14-14-14-12-12-12-12-12-12------------------------| 
G|---------------------------------------------------------| 
D|---------------------------------------------------------| 
A|---------------------------------------------------------| 
E|---------------------------------------------------------| 
 

(guitarra 2) 
 
E|---------------------------------------------------------| 
B|---------------------------------------------------------| 
G|-5--5--5--5--5-------------------------------------------| 
D|-5--5--5--5--5--7--7--7--7--7--7-------------------------| 
A|-3--3--3--3--3--7--7--7--7--7--7-------------------------| 
E|----------------7--7--7--7--7--7-------------------------| 
 
(Verso) 

 
E|---------------------------------------------------------| 
B|---------------------------------------------------------| 
G|----------------------------------------------------5-5--| 
D|-2-2-3-3---4-4-3-3--2-2-3-3--4-4-3-3---(repeat-2-2--x-x--| 
A|-2-2-3-3---4-4-3-3--2-2-3-3--4-4-3-3---as much)2-2--3-3--| 
E|-2-2-3-3---4-4-3-3--2-2-3-3--4-4-3-3-----------2-2-------| 
 
(pré-refrão) 

 
E|---------------------------------------------------------| 
B|---------------------------------------------------------| 
G|---------------------------------------------------------| 
D|-5-5--7-7--3-3-------------------------------------------| 
A|-5-5--7-7--3-3-------------------------------------------| 
E|-5-5--7-7--3-3-------------------------------------------| 
 
(refrão) 

E|-------------------------------------------------------------| 
B|-------------------------------------5--5--5--5-5------------| 
G|-------------------------------------5--5--5--5-5------------| 
D|--7--7--7--7--7--7----3--3--3--3--3--3--3--3--3-3-5--5--5--5-| 
A|--7--7--7--7--7--7----3--3--3--3--3---------------5--5--5--5-| 
E|--7--7--7--7--7--7----3--3--3--3--3---------------5--5--5--5-| 
		  

auto scroll beats size up size down change color hide chords drawings
tab show chords e-chords YouTube Clip e-chords hide all tabs e-chords go to top tab

share