A Change Of Pace

Death Do Us Part

A Change Of Pace

tabs

by  FERNSANTANA

save to print version add songbook text version e-mail correct tuner
chordsukulelecavacokeyboardtabbassdrumsharmonicaflute Guitar Pro
close

there isn't a video lesson for this song

chords

Death Do Us Part

	  		

Guitar 1 (0:00) 
 
e|-------------------------------------------------------------------------| 
B|332200--2200--22--2200--2200--22-----------------------------------------| 
G|----------------------------------2211--2211--22--2211--22114422---------| 
D|------00----00--00----00----00-------------------------------------------| 
A|-------------------------------------------------------------------------| 
D|--------------------------------44----44----44--44----44-----------------| 
 

 
e|-------------------------------------------------------------------------| 
B|--2211--2211--22--2211--2211--22-----------------------------------------| 
G|----------------------------------2211--2211--22--2211--22114422---------| 
D|00----00----00--00----00----00-------------------------------------------| 
A|-------------------------------------------------------------------------| 
D|--------------------------------44----44----44--44----44-----------------| 
 

Guitar 2 
 
e|-------------------------------------------------------------------------| 
B|-------------------------------------------------------------------------| 
G|-------------------------------------------------------------------------| 
D|0-0-0-0-0-0-0-0-0-0-0-0-4-4-4-4-4-4-4-4-4-4-4-4--------------------------| 
A|0-0-0-0-0-0-0-0-0-0-0-0-4-4-4-4-4-4-4-4-4-4-4-4--------------------------| 
D|0-0-0-0-0-0-0-0-0-0-0-0-4-4-4-4-4-4-4-4-4-4-4-4--------------------------| 
 

 
e|-------------------------------------------------------------------------| 
B|-------------------------------------------------------------------------| 
G|-------------------------------------------------------------------------| 
D|0-0-0-0-0-0-0-0-0-0-0-0-4-4-4-4-4-4-4-4-4-4-4-4--------------------------| 
A|0-0-0-0-0-0-0-0-0-0-0-0-4-4-4-4-4-4-4-4-4-4-4-4--------------------------| 
D|0-0-0-0-0-0-0-0-0-0-0-0-4-4-4-4-4-4-4-4-4-4-4-4--------------------------| 
 

Guitar 2 (0:16) 
 
e|-------------------------------------------------------------------------| 
B|-------------------------------------------------------------------------| 
G|-------------------------------------------------------------------------| 
D|4-4---0-0---7-7-7-7-7-7-2-2-2-2-2-2--------------------------------------| 
A|4-4---0-0---7-7-7-7-7-7-2-2-2-2-2-2--------------------------------------| 
D|4-4---0-0---7-7-7-7-7-7-2-2-2-2-2-2--------------------------------------| 
 

Guitar 1 (0:23) 
 
e|------554400----------554400---------------------------------------------| 
B|332200------3322332200------3322-----------------------------------------| 
G|-------------------------------------------------------------------------| 
D|-------------------------------------------------------------------------| 
A|-------------------------------------------------------------------------| 
D|-------------------------------------------------------------------------| 
 

Guitar 2 
 
e|-------------------------------------------------------------------------| 
B|-------------------------------------------------------------------------| 
G|-------------------------------------------------------------------------| 
D|4-4---0-0---7-7-7-7-7-7-2-2--2-2--2\-------------------------------------| 
A|4-4---0-0---7-7-7-7-7-7-2-2--2-2--2\-------------------------------------| 
D|4-4---0-0---7-7-7-7-7-7-2-2--2-2--2\-------------------------------------| 
 

Guitar 2 (0:31) (X2) 
 
e|-------------------------------------------------------------------------| 
B|-------------------------------------------------------------------------| 
G|------------------------9-9-9-9-9-9-7-7-7-7-7-7--------------------------| 
D|0-0-0-4-4-4-0-0-0-7-7-7-9-9-9-9-9-9-7-7-7-7-7-7--------------------------| 
A|0-0-0-4-4-4-0-0-0-7-7-7-7-7-7-7-7-7-5-5-5-5-5-5--------------------------| 
D|0-0-0-4-4-4-0-0-0-7-7-7--------------------------------------------------| 
 

Guitar 2 (0:46) (X2) 
 
e|-------------------------------------------------------------------------| 
B|-------------------------------------------------------------------------| 
G|-------------------------------------------------------------------------| 
D|0-0-0-0-0-0-2-2-2-2-2-2-4-4-4-4-4-4-7-7-7-7-7-7--------------------------| 
A|0-0-0-0-0-0-2-2-2-2-2-2-4-4-4-4-4-4-7-7-7-7-7-7--------------------------| 
D|0-0-0-0-0-0-2-2-2-2-2-2-4-4-4-4-4-4-7-7-7-7-7-7--------------------------| 
 

Guitar 1 (1:02) (X2) 
 
e|-------------------------------------------------------------------------| 
B|--2211--2211--22--2211--2211--22-----------------------------------------| 
G|----------------------------------2211--2211--22--2211--22114422---------| 
D|00----00----00--00----00----00-------------------------------------------| 
A|-------------------------------------------------------------------------| 
D|--------------------------------44----44----44--44----44-----------------| 
 

Guitar 2 (1:06) 
 
e|-------------------------------------------------------------------------| 
B|-------------------------------------------------------------------------| 
G|-------------------------------------------------------------------------| 
D|4-4-4-4-4-4-4-4-4-4-4-4-4-0-0-0-0-0-0-0-0-0-0-0-0-4-4-4-4-4-4-4-4-4-4-4-4| 
A|4-4-4-4-4-4-4-4-4-4-4-4-4-0-0-0-0-0-0-0-0-0-0-0-0-4-4-4-4-4-4-4-4-4-4-4-4| 
D|4-4-4-4-4-4-4-4-4-4-4-4-4-0-0-0-0-0-0-0-0-0-0-0-0-4-4-4-4-4-4-4-4-4-4-4-4| 
 

Guiat 2 (1:17) 
 
e|-------------------------------------------------------------------------| 
B|-------------------------------------------------------------------------| 
G|-------------------------------------------------------------------------| 
D|4-4---0-0---7-7-7-7-7-7-2-2-2-2-2-2--------------------------------------| 
A|4-4---0-0---7-7-7-7-7-7-2-2-2-2-2-2--------------------------------------| 
D|4-4---0-0---7-7-7-7-7-7-2-2-2-2-2-2--------------------------------------| 
 

Guitar 1 (1:25) 
 
e|------554400----------554400---------------------------------------------| 
B|332200------3322332200------3322-----------------------------------------| 
G|-------------------------------------------------------------------------| 
D|-------------------------------------------------------------------------| 
A|-------------------------------------------------------------------------| 
D|-------------------------------------------------------------------------| 
 

Guitar 2 
 
e|-------------------------------------------------------------------------| 
B|-------------------------------------------------------------------------| 
G|-------------------------------------------------------------------------| 
D|4-4---0-0---7-7-7-7-7-7-2-2--2-2--2\-------------------------------------| 
A|4-4---0-0---7-7-7-7-7-7-2-2--2-2--2\-------------------------------------| 
D|4-4---0-0---7-7-7-7-7-7-2-2--2-2--2\-------------------------------------| 
 

Guitar 2 (1:32) (X2) 
 
e|-------------------------------------------------------------------------| 
B|-------------------------------------------------------------------------| 
G|------------------------9-9-9-9-9-9-7-7-7-7-7-7--------------------------| 
D|0-0-0-4-4-4-0-0-0-7-7-7-9-9-9-9-9-9-7-7-7-7-7-7--------------------------| 
A|0-0-0-4-4-4-0-0-0-7-7-7-7-7-7-7-7-7-5-5-5-5-5-5--------------------------| 
D|0-0-0-4-4-4-0-0-0-7-7-7--------------------------------------------------| 
 

Guitar 2 (1:48) (X2) 
 
e|-------------------------------------------------------------------------| 
B|-------------------------------------------------------------------------| 
G|-------------------------------------------------------------------------| 
D|0-0-0-0-0-0-2-2-2-2-2-2-4-4-4-4-4-4-7-7-7-7-7-7--------------------------| 
A|0-0-0-0-0-0-2-2-2-2-2-2-4-4-4-4-4-4-7-7-7-7-7-7--------------------------| 
D|0-0-0-0-0-0-2-2-2-2-2-2-4-4-4-4-4-4-7-7-7-7-7-7--------------------------| 
 

Guitar 1 (2:03) 
 
e|--0-4-0---0-5-0---0-4-0-7-5-4---0-4-0---0-5-0---0-4-0-7-5-4--------------| 
B|-------------------------------------------------------------------------| 
G|-------------------------------------------------------------------------| 
D|0-------0-------0-------------0-------0-------0--------------------------| 
A|-------------------------------------------------------------------------| 
D|-------------------------------------------------------------------------| 
 

Guitar 2 (2:10) 
 
e|-------------------------------------------------------------------------| 
B|-------------------------------------------------------------------------| 
G|------------13-13-14-------------16-16-18--------------------------------| 
D|2-2-2-4-4-4-x--x--x--4-4-4-2-2-2-x--x--x--4-4-4-2-2-2--------------------| 
A|2-2-2-4-4-4-11-11-12-4-4-4-2-2-2-14-14-16-4-4-4-2-2-2--------------------| 
D|2-2-2-4-4-4----------4-4-4-2-2-2----------4-4-4-2-2-2--------------------| 
 

Guitar 1 (2:18) 
 
e|--0-4-0---0-5-0---0-4-0-7-5-4---0-4-0---0-5-0---0-4-0-7-5-4--------------| 
B|-------------------------------------------------------------------------| 
G|-------------------------------------------------------------------------| 
D|0-------0-------0-------------0-------0-------0--------------------------| 
A|-------------------------------------------------------------------------| 
D|-------------------------------------------------------------------------| 
 

Guitar 2 (2:26) 
 
e|-------------------------------------------------------------------------| 
B|-------------------------------------------------------------------------| 
G|------------14-14-16-------------------16-16-18--------------------------| 
D|2-2-2-4-4-4-x--x--x--4-4-4-2-2-2-4-4-4-x--x--x--4~-----------------------| 
A|2-2-2-4-4-4-12-12-14-4-4-4-2-2-2-4-4-4-14-14-16-4~-----------------------| 
D|2-2-2-4-4-4----------4-4-4-2-2-2-4-4-4----------4~-----------------------| 
 

Guitar 2 (2:34) (X4) 
 
e|-------------------------------------------------------------------------| 
B|-------------------------------------------------------------------------| 
G|-------------------------------------------------------------------------| 
D|0-0-0-0-0-0-2-2-2-2-2-2-4-4-4-4-4-4-7-7-7-7-7-7--------------------------| 
A|0-0-0-0-0-0-2-2-2-2-2-2-4-4-4-4-4-4-7-7-7-7-7-7--------------------------| 
D|0-0-0-0-0-0-2-2-2-2-2-2-4-4-4-4-4-4-7-7-7-7-7-7--------------------------| 
 

Guitar 2 (3:05) 
 
e|-------------------------------------------------------------------------| 
B|-------------------------------------------------------------------------| 
G|-------------------------------------------------------------------------| 
D|444440-444440-77777777-22222222-444440-444440-77777777-22222222-7~-------| 
A|444440-444440-77777777-22222222-444440-444440-77777777-22222222-7~-------| 
D|444440-444440-77777777-22222222-444440-444440-77777777-22222222-7~-------| 
 

| /  slide up 
| \  slide down 
| h  hammer-on 
| p  pull-off 
| ~  vibrato 
| +  harmonic 
| x  Mute note 
 
		  

auto scroll beats size up size down change color hide chords drawings
tab show chords e-chords YouTube Clip e-chords hide all tabs e-chords go to top tab

share