A Billion Ernies

Please Don't Reveal The Ending

A Billion Ernies

tabs

by  VICTBORGES

save to print version add songbook text version e-mail correct tuner
chordsukulelecavacokeyboardtabbassdrumsharmonicaflute Guitar Pro
close

there isn't a video lesson for this song

chords

Please Don't Reveal The Ending

	  		(intro / refrão) 
 
E |-3----7--5----------------------------------------------------------------| 
B |-5----8--7----------------------------------------------------------------| 
G |-5----9--7----------------------------------------------------------------| 
D |-5----9--7----------------------------------------------------------------| 
A |-3----7--5----------------------------------------------------------------| 
E |--------------------------------------------------------------------------| 
 

(verso 2x) 
 
E |-3-3-3-3-3-3-3-3-2-2-2-2-2-2-2-2-3-3-3-3-3-3-3-3-2-2-2-2-2-2-2-2----------| 
B |-3-3-3-3-3-3-3-3-4-4-4-4-4-4-4-4-3-3-3-3-3-3-3-3-4-4-4-4-4-4-4-4----------| 
G |-4-4-4-4-4-4-4-4-4-4-4-4-4-4-4-4-4-4-4-4-4-4-4-4-4-4-4-4-4-4-4-4----------| 
D |-5-5-5-5-5-5-5-5-4-4-4-4-4-4-4-4-5-5-5-5-5-5-5-5-4-4-4-4-4-4-4-4----------| 
A |-5-5-5-5-5-5-5-5-2-2-2-2-2-2-2-2-5-5-5-5-5-5-5-5-2-2-2-2-2-2-2-2----------| 
E |-3-3-3-3-3-3-3-3-----------------3-3-3-3-3-3-3-3--------------------------| 
 

(pre-refrão) 
 
E |-5----7----5----7----5----7-----------------------------------------------| 
B |-5----7----5----7----5----7-----------------------------------------------| 
G |-5----8----5----8----5----8----9-9-9-9-11-11-11-11------------------------| 
D |-7----9----7----9----7----9----x-x-x-x-x--x--x--x-------------------------| 
A |-7----9----7----9----7----9----7-7-7-7-9--9--9--9------5-5-2-2------------| 
E |-5----7----5----7----5----7------------------------3-3--------------------| 
 

(ponte) 
E |--------------------------------------------------------------------------| 
B |---------------------------------5-5-3-3-333p0----------------------------| 
G |-5-5-4-4---------4-4-----4-4-------------------4p0------------------------| 
D |---------5-5-4-4-----5-5-----5-5------------------------------------------| 
A |---------------------------------------------------------2-2--------------| 
E |---------------------------------------------------*-3-3-----3------------| 
		  

See also:

tabs Deep Purple - Perfect Strangers tabs Deep Purple - Smoke on the water (intro) tabs Ira! - Nucleo De Base tabs Deep Purple - Smoke on the Water (solo) tabs Ira! - Flerte Fatal (intro e solo) tabs Deep Purple - Smoke On The Water
e-chords

Other versions:

tabs A Billion Ernies - Please Don't Reveal The Ending
auto scroll beats size up size down change color hide chords drawings
tab show chords e-chords YouTube Clip e-chords hide all tabs e-chords go to top tab

share