5 Seconds Of Summer

Mrs All American

5 Seconds Of Summer

tabs

by  PAULANTUNES

save to print version add songbook text version e-mail correct tuner
chordsukulelecavacokeyboardtabbassdrumsharmonicaflute Guitar Pro
close

there isn't a video lesson for this song

chords

Mrs All American

	  		

This song doesn't have too many guitar parts, but alot of them are tricky, specifically the bends 
in the solo and outro. They're really quick so that and the opening riff makes this song one of 
their hardest to play along with Just Saying and Rejects. The bends in the final Chorus and outro 
may not be 100% accurate but they definitely work with the song. Enjoy! 

Guitar 1 - Michael Clifford 
Guitar 2 - Luke Hemmings 

/ or \ - slide to and from a note 
* - palm mute 
===3=== - triplet 
. - release (stop) note from ringing out after playing it 
b - bend note on the left of the "b" so it sounds like the fret on the right of the "b" 

Intro/Main Riff: 

Guitar 1 (Guitar 2 doesn't play) 
E|-3-3----3-3-3----3-3-3----3-4-4-4--| 
B|-4-4----4-4-4----4-4-4----4-4-4-4--| This riff is hard to play unless 
G|-0-0----0-0-0----0-0-0----0-5-5-5--| you're an advanced player...pretty 
D|-5-5----5-5-5----5-5-5----5-6-6-6--| sure it's correct though unless 
A|-6-6----6-6-6----6-6-6----6--------| they used 2 guitar parts for it 
D|-----------------------------------| when they recorded it 

PreChorus 1: 

Guitar 1 (Guitar 2 doesn't play) 
E|---------------------------|--------|----------------|| 
B|---------------------------|-8/9\8~-|----------------|| Play "1.", then play the first bar, 
G|-3~---/12~-8~----/12~-8~---|--------|-7/8\7/8\7/8\7~-|| then skip "1." and play "2." 
D|---------------------------|--------|----------------|| 
A|-1~---/10~-6~----/10~-6~---|--1.----|-------2.-------|| 
D|---------------------------|--------|----------------|| 

Chorus: 

Guitar 1 
E|-----------------------------------|-11--11~--10~-8\6~--11-10~-11-13--------------------10--10--13~\-|| 
B|------------4~-4-4-4-3-3-3-3-------|---11----------------------------13~---------13-11~---11--13-----|| 
G|-.--.-------5~-5-5-5---------------|-------------------------------------12--12~---------------------|| 
D|-1--1--1~---5~-5-5-5-3-3-3-3---2x--|-----------------------------------------------------------------|| 
A|-1--1--1~---3~-3-3-3-1-1-1-1-------|-----------------------------------------------------------------|| 
D|-1--1--1~--------------------------|-----------------------------------------------------------------|| 
                                    ^I think this is a keyboard but I transcribed it to guitar 
Guitar 2 
E|-----------------------------------|--------|| 
B|------------4~-4-4-4---------------|--------|| 
G|-.--.-------5~-5-5-5-3-3-3-3-------|-8~-----|| 
D|-1--1--1~---5~-5-5-5-3-3-3-3---4x--|-8~-----|| 
A|-1--1--1~---3~-3-3-3-1-1-1-1-------|-6~-----|| 
D|-1--1--1~--------------------------|--------|| 

Repeat: 
Verse 

PreChorus 2: 

Guitar 1, 2x: 
E|---------------------------------|----------------------|----------------------------|| 
B|---------------------------------|----------------------|----------------------------|| 
G|-10~------12~---13~----15~-13~---|-12--x8-10101010-8888-|-(13~)-1313131313131313/15~-|| 
D|---------------------------------|----------------------|----------------------------|| 
A|--8~------10~---11~----13~-11~---|-----------1.---------|-(11~)-------2.-------------|| 
D|---------------------------------|----------------------|----------------------------|| 
                                     *      * * * *  ****   
Guitar 2, 2x: 
E|-10~~~~---10----11~~~~-----------|---------1.----------|------2.----------|| 
B|-13b15~---13b15-14b16~-----------|---------------------|------------------|| 
G|---------------------------------|---------------------|-8888888888888888-|| 
D|---------------------------------|-----(silence)-------|------------------|| 
A|---------------------------------|---------------------|-6666666666666666-|| 
D|---------------------------------|---------------------|------------------|| 

Repeat: 
Chorus - Guitar 1 does not play that second bar (keyboard thing). It plays 
         this on the 3rd time, then it goes back to playing x3554xx 
E|-11--11--11------|| 
B|-----------------|| 
G|--8---8---8------|| 
D|--.---.---.------|| 
A|-----------------|| 
D|-----------------|| 

SOLO (some effect is used on these notes): 

Guitar 1 
E|------------------------------------------------------------| 
B|-11~~~~-16----15----13----11~~~~----16----15----13----16----| Play this 2x 
G|-13b15~-18b20-17b19-15b17-13b15~----18b20-17b19-15b17-18b20-|  
D|------------------------------------------------------------|  
A|------------------------------------------------------------| 
D|------------------------------------------------------------| 

E|---------------------|| 
B|-11~~~~~~~~~~~~~~~~--|| If the bends are too tough for you simply play the notes on 
G|-13b15~~~~~~~~~~~~~--|| the B string! If they are too far apart, play the B16 note 
D|---------------------|| on the E string instead (E11) 
A|---------------------|| 
D|---------------------|| 

Guitar 2, 2x 
E|-----------------------------| 
B|------------4~-4-4-4---------| 
G|-.--.-------5~-5-5-5-3-3-3-3-| 
D|-1--1--1~---5~-5-5-5-3-3-3-3-| 
A|-1--1--1~---3~-3-3-3-1-1-1-1-| 
D|-1--1--1~--------------------| 

Bridge: 

Guitar 2 (1:48), Guitar 1 doesn't play 
E|-----------------|------------------|----------|| 
B|-----------------|-----1./2./3.-----|----4.----|| Some phaser 
G|-----------------|------------------|----------|| effect is 
D|-----------------|------------------|--------.-|| used on this 
A|-6-------6-------|-6----------------|-66666666-|| part 
D|---5-6-8---5-6-8-|---5-6-8-10-8-6-8-|----------|| 

There's a chance the bass only plays the above part, I'm not sure 

Chorus 3: 

Guitar 1 (some effect is used on these notes) 
E|-----------------------------------|-------------------------|--------------------------|| 
B|-11~~~~-16----15----13----11~~~~---|-16----15----13----16----|-16----15~~~~-9-----8-----|| 
G|-13b15~-18b20-17b19-15b17-13b15~---|-18b20-17b19-15b17-18b20-|-18b20-17b19~-11b13-10b12-|| 
D|-----------------------------------|-------------------------|--------------------------||  
A|-----------------------------------|-----------1./3.---------|------------2./4.---------|| 
D|-----------------------------------|-------------------------|--------------------------|| 

Guitar 2 
E|-----------------------------------| 
B|------------4~-4-4-4---------------| 
G|-.--.-------5~-5-5-5-3-3-3-3-------| 
D|-1--1--1~---5~-5-5-5-3-3-3-3---4x--| 
A|-1--1--1~---3~-3-3-3-1-1-1-1-------| 
D|-1--1--1~--------------------------| 

Outro: 

Guitar 1 (some effect is used on these notes) 
E|---------------------------------------------|--===3===------------------------------------------| 
B|-11~~~~-16----15----13----15-----------------|------------11~~~~-16----15----13----15------------| 
G|-13b15~-18b20-17b19-15b17-17b19-15-12~---2x--|-12h13p12~--13b15~-18b20-17b19-15b17-17b19-15-12~--| 
D|---------------------------------------------|---------------------------------------------------| 
A|---------------------------------------------|---------------------------------------------------| 
D|---------------------------------------------|---------------------------------------------------| 

E|--------------------------------------------------------------------------------| 
B|---------------------11~~~~-16----15----13----15--------------------------------| 
G|-12121212-13~p12~----13b15~-18b20-17b19-15b17-17b19-12-15-12~----10~---12~~~~~~-| 
D|--------------------------------------------------------------------------------| 
A|-----------------------------------------------------------------------10~~~~~~-| 
D|--------------------------------------------------------------------------------| 

Guitar 2 
E|----------------------------------|---------|| 
B|------------4~-4-4-4--------------|---------|| 
G|-.--.-------5~-5-5-5-3-3-3-3------|---------|| 
D|-1--1--1~---5~-5-5-5-3-3-3-3---4x-|-1~~~~~~-|| 
A|-1--1--1~---3~-3-3-3-1-1-1-1------|-1~~~~~~-|| 
D|-1--1--1~-------------------------|-1~~~~~~-|| 
		  

Full key step upFull key step up
Half key step upHalf key step up
Half key step downHalf key step down
Full key step downFull key step down
hide glossary

See also:

tabs Pond - Eye Pattern Blindness tabs Liam Finn - Burn Up The Road tabs 5 Seconds Of Summer - Drown (acoustic) tabs Lakyn Heperi - Kids tabs Pond - Gringolets Drunken Baggage tabs San Cisco - Metaphors
e-chords

Other versions:

tabs 5 Seconds Of Summer - Mrs All American
auto scroll beats size up size down change color hide chords drawings
tab show chords e-chords YouTube Clip e-chords hide all tabs e-chords go to top tab

share