4/1 - Quatro Por Um

Mais de Ti

4/1 - Quatro Por Um

tabs Expert expert

by  WALQUE

save to print version add songbook text version e-mail correct tuner
chordsukulelecavacokeyboardtabbassdrumsharmonicaflute Guitar Pro
close

there isn't a video lesson for this song

chords

Mais de Ti

	  		Intro:
e------------------------------------------------------------------
B------------------------------------------------------------------
G------4-5-7-------7h9-7-----------4-5-----------------------------
D--5-7--------5-5---------7p5--5-7------7-9--7>5-0-----------------
A------------------------------------------------------------------
E------------------------------------------------------------------

e------------------------------------------------------------------
B------------------------------------------------------------------
G------4-5-7-------7h9-7-----------4-5--5-5--7>9-7-----------------
D--5-7--------5-5---------7p5--5-7-------------------5-7p5v--------
A------------------------------------------------------------------
E--------------------------------------------------------------

INTR: G C/D Em C9 D4 D

G          D/F#     Em   
NINGUÉM ME FAZ TÃO BEM
      C9       D4 D 
COMO DEUS MEU DEUS
G          D/F#     Em
NINGUÉM ME AMA ASSIM
       C9       D4 D  
COMO DEUS MEUS DEUS
G         D/F#     Em
PRECIOSO ES PRA MIM
      C9       D4 D 
MEU DEUS MEUS DEUS
G       D/F#     Em
FIEL TU ES A MIM
      C9       D4 D
MEUS DEUS MEUS DEUS
C9           G/B    Am7         Em7(9)
PRECISO ENXERGAR O QUE JAMAIS SE VIU
C9           G/B    Am7         Em7(9)
PRECISO ESCUTAR O QUE JAMAIS SE OUVIU
    C   Am7  D4 D  G 
EU PRECISO MAIS DE TI
           C9           G/B    Am7         Em7(9)
MAIS DE TI,MAIS DE TI,MAIS DE TI,MAIS DE TI
   C   Am7  D4  D   G 
EU PRECISO MAIS DE TI
		  

Full key step upFull key step up
Half key step upHalf key step up
Half key step downHalf key step down
Full key step downFull key step down
auto scroll beats size up size down change color hide chords drawings
tab show chords e-chords YouTube Clip e-chords hide all tabs e-chords go to top tab

share