4/1 - Quatro Por Um

Há um futuro

4/1 - Quatro Por Um

tabs Advanced advanced

by  EDUARDO_LYVIO

save to print version add songbook text version e-mail correct tuner
chordsukulelecavacokeyboardtabbassdrumsharmonicaflute Guitar Pro
close

there isn't a video lesson for this song

chords

Há um futuro

	  		e------------------------------  
B------------------------------  
G------------------------------  
D---------4-6--4-6/8--4-6/9----  
A-----4-6----------------------  
E-2----------------------------  
  
e------------------------------  
B------------------------------  
G------------------------------  
D--------4-6--4-6/8--4-6/9-----  
A----4-6-----------------------  
E------------------------------  
  
  


		  

auto scroll beats size up size down change color hide chords drawings
tab show chords e-chords YouTube Clip e-chords hide all tabs e-chords go to top tab

share