4/1 - Quatro Por Um

Cinco Pćes e Dois Peixinhos

4/1 - Quatro Por Um

tabs Beginner beginner

by  WALQUE

save to print version add songbook text version e-mail correct tuner
chordsukulelecavacokeyboardtabbassdrumsharmonicaflute Guitar Pro
close

there isn't a video lesson for this song

chords

Cinco Pćes e Dois Peixinhos

	  		Solo parte final. overdrive

E|---------------------------------------------------------16-14-12v-
A|----------------------------------------------------16-14----------
D|--------------------------------------------------14---------------
G|--------------------------------9h11-9/13-13h14-13-----------------
B|----------12-12h14------12h14-12-----------------------------------
E|-12/14--12--------12-12--------------------------------------------


E|-14/16-------------------------------------------------------------
A|------14v-14/16----------------------------------------------------
D|---------------14v-16/18-----------------------------14--14-13-14--
G|------------------------16v/11-11/16v-----------13-11--11----------
B|----------------------------------------12-14-12-------------------
E|-------------------------------------------------------------------


E|----------------------------------------------
A|----------14----------------------------------
D|-11--14-13--11--------------------------------
G|---11-----------11/13-11-9--------11/9v-------
B|--------------------------12/14-12------------
E|----------------------------------------------

		  

auto scroll beats size up size down change color hide chords drawings
tab show chords e-chords YouTube Clip e-chords hide all tabs e-chords go to top tab

share