4/1 - Quatro Por Um

Adorar a Deus

4/1 - Quatro Por Um

tabs Beginner beginner

by  WALQUE

save to print version add songbook text version e-mail correct tuner
chordsukulelecavacokeyboardtabbassdrumsharmonicaflute Guitar Pro
close

there isn't a video lesson for this song

chords

Adorar a Deus

	  		INTRO:A9

A9                           F#m
HÁ UM CAMINHO PARA A ADORAÇÃO
                               D9
HÁ UMA PORTA QUE TEM QUE SE ABRIR
                            A/C#  Bm7
ABRIR OS MEUS OLHOS ESPIRITUAIS 
               E4  E  E9
PARA QUE EU POSSA VER


A9                               F#m
HÁ UMA SEMENTE QUE TÊM QUE BROTAR
                                 D9
EXISTEM VONTADES QUE TÊM QUE MORRER
                                 A/C#  Bm7
MARRER PARA O MUNDO E VIVER PARA DEUS
   E4 E A9
E O ADORAR


A9             F#m
ADORAR A DEUS,VIVER NO SEU ALTAR
D9   A/C#    Bm7  E4  E   A9
ADORAR A DEUS E ME ENTREGAR


SOLO: Am9 Dm9 G4 G E4 D/F# E/G# A9
E|--------------------------------------------------------------
A|-7------------------------------------------------------------
D|--7-9-10------------------------------------------------------
G|--------7-7-9-9--7-510-10--7----------------------------------
B|-----------------------------10-12---12--12-13-15-------------
E|----------------------------------8-8------------12-13-12-12--

E|---------------------------
A|---------------------------
D|---------------------------
G|--------16-----------------
B|------15--------17-19------
E|-1214-----1416-----1617----
		  

Full key step upFull key step up
Half key step upHalf key step up
Half key step downHalf key step down
Full key step downFull key step down
auto scroll beats size up size down change color hide chords drawings
tab show chords e-chords YouTube Clip e-chords hide all tabs e-chords go to top tab

share