30 Minutes Til

home > 30 Minutes Til

Stepping Stone Tab

30 Minutes Til

Difficulty: nolevelnolevel

by alyslima

tuner correct add songbook print version text version save to e-mail
chordsukulelecavacokeyboardtabbassdrumsharmonicsflute Guitar Pro
chords

Stepping Stone

  		


Intro (Guitar 1) 
e|---------------------------------------------------------------------------| 
B|---------------------------------------------------------------------------| 
G|---------------------------------------------------------------------------| 
D|44444446622222224444444466222222-------2222244---22222-----222222244-------| 
A|222222244000000022222222440000000000000000002200000000000000000000220000000| 
E|--------------------------------0000000-------000-----00000---------0000000| 


Verse 
e|---------------------------------------------------------------------------| 
B|---------------------------------------------------------------------------| 
G|---------------------------------------------------------------------------| 
D|44444444666222222244444466622222224444446662222222444444222266666----------| 
A|22222222444000000022222244400000002222224440000000222222000044444----------| 
E|---------------------------------------------------------------------------| 
  xxxxxxxxxxxxxxxxxxxxxxxxxxxxxxxxxxxxxxxxxxxxxxxxxxxxxxxxxxxxxxxxx 


Chorus (Guitar 1) 
e|---------------------------------------------------------------------------| 
B|---------------------------------------------------------------------------| 
G|---------------------------------------------------------------------------| 
D|------------------22222-----22444------------------------22222-----2244----| 
A|444442222200000000000000000000222000004444422222000000000000000000000220000| 
E|444442222200000000-----00000-----000004444422222000000000-----00000----0000| 


Bridge (Guitar 1) 
e|---------------------------------------------------------------------------| 
B|10-9----------------10--------9--------------------------------------------| 
G|9--7--9-6-9-----------------------------9-6--------------------------------| 
D|9--7--0-----9-7---9---------7---7-----0---------7-9-7-5-5------------------| 
A|9--7--0----------9--------7-------7--0--------0----------------------------| 
E|9--7--0---------9-------7-----------0-------0------------------------------| 


Chorus (Guitar 1) 
e|---------------------------------------------------------------------------| 
B|---------------------------------------------------------------------------| 
G|---------------------------------------------------------------------------| 
D|------------------22222-----22444------------------------22222-----2244----| 
A|444442222200000000000000000000222000004444422222000000000000000000000220000| 
E|444442222200000000-----00000-----000004444422222000000000-----00000----0000| 


Ending 
e|---------------------------------------------------------------------------| 
B|10-9-----------------------------------------------------------------------| 
G|9--7--9-6-9----------------------------------------------------------------| 
D|9--7--0-----9-7------------------------------------------------------------| 
A|9--7--0--------------------------------------------------------------------| 
E|9--7--0--------------------------------------------------------------------| 


************************************ 

| /   slide up 
| \   slide down 
| h   hammer-on 
| p   pull-off 
| ~   vibrato 
| +   harmonic 
| x   Mute note 
| b   Bend 
| pb  Pre-bend 
| br  Bend release 
| pbr Pre-bend release 
| brb Bend release bend 

************************************ 
	  

Search Paypal
auto scroll beats size up size down change color hide chords drawings
tab show chords e-chords YouTube Clip e-chords hide all tabs e-chords go to top tab