30 Minutes Til

Life Alert

30 Minutes Til

tabs

by  JOAOEWERTON

save to print version add songbook text version e-mail correct tuner
chordsukulelecavacokeyboardtabbassdrumsharmonicaflute Guitar Pro
close

there isn't a video lesson for this song

chords

Life Alert

	  		


Intro (Rhythm Guitar) 
e|---------------------------------------------------------------------------| 
B|---------------------------------------------------------------------------| 
G|---------------------------------------------------------------------------| 
D|--------444444442222222244444444--------444444442-44-----------------------| 
A|2222222222222222000000002222222222222222222222220-22662--------------------| 
E|00000000------------------------00000000------------440--------------------| 

Intro (Lead Guitar) 
e|---------------------------------------------------------------------------| 
B|---------------------------------------------------------------------------| 
G|---------------------------9-----------------------------------------------| 
D|-967-67-967676--967-67-9679------------------------------------------------| 
A|7---9--7------97---9--7----------------------------------------------------| 
E|---------------------------------------------------------------------------| 

Verse (Lead Guitar) 
e|---------------------------------------------------------------------------| 
B|---------------------------------------------------------------------------| 
G|---------------------------------------------------------------------------| 
D|---------------------------------------------------------------------------| 
A|-2----2-----2----2--2------------------------------------------------------| 
E|0-45-0-45420-45-0-45-------------------------------------------------------| 

Intro (Rhythm Guitar) 
e|---------------------------------------------------------------------------| 
B|---------------------------------------------------------------------------| 
G|---------------------------------------------------------------------------| 
D|--------444444442222222244444444--------444444442-44-----------------------| 
A|2222222222222222000000002222222222222222222222220-22662--------------------| 
E|00000000------------------------00000000------------440--------------------| 

Intro (Lead Guitar) 
e|---------------------------------------------------------------------------| 
B|---------------------------------------------------------------------------| 
G|---------------------------9-----------------------------------------------| 
D|-967-67-967676--967-67-9679------------------------------------------------| 
A|7---9--7------97---9--7----------------------------------------------------| 
E|---------------------------------------------------------------------------| 

Verse (Lead Guitar) 
e|---------------------------------------------------------------------------| 
B|---------------------------------------------------------------------------| 
G|---------------------------------------------------------------------------| 
D|---------------------------------------------------------------------------| 
A|-2----2-----2----2--2------------------------------------------------------| 
E|0-45-0-45420-45-0-45-------------------------------------------------------| 

Chorus (Lead & Rhythm Guitar) 
e|---------------------------------------------------------------------------| 
B|---------------------------------------------------------------------------| 
G|---------------------------------------------------------------------------| 
D|6666666444444422222224444444666666644444442-44-----------------------------| 
A|4444444222222200000002222222444444422222220-22662--------------------------| 
E|----------------------------------------------440--------------------------| 

Intro (Rhythm Guitar) 
e|---------------------------------------------------------------------------| 
B|---------------------------------------------------------------------------| 
G|---------------------------------------------------------------------------| 
D|--------444444442222222244444444--------444444442-44-----------------------| 
A|2222222222222222000000002222222222222222222222220-22662--------------------| 
E|00000000------------------------00000000------------440--------------------| 

Intro (Lead Guitar) 
e|---------------------------------------------------------------------------| 
B|---------------------------------------------------------------------------| 
G|---------------------------9-----------------------------------------------| 
D|-967-67-967676--967-67-9679------------------------------------------------| 
A|7---9--7------97---9--7----------------------------------------------------| 
E|---------------------------------------------------------------------------| 

Verse (Lead Guitar) 
e|---------------------------------------------------------------------------| 
B|---------------------------------------------------------------------------| 
G|---------------------------------------------------------------------------| 
D|----------------2-2-2-4-4-4------------------------------------------------| 
A|-2----2-----2---0-0-0-2-2-2------------------------------------------------| 
E|0-45-0-45420-45------------------------------------------------------------| 

Outro (Rhythm Guitar) 
e|---------------------------------------------------------------------------| 
B|---------------------------------------------------------------------------| 
G|---------------------------------------------------------------------------| 
D|--------444444442222222244444444--------444444442222222244444444-----------| 
A|2222222222222222000000002222222222222222222222220000000022222222-----------| 
E|00000000------------------------00000000-----------------------------------| 

Outro (Rhythm Guitar) 
e|---------------------------------------------------------------------------| 
B|---------------------------------------------------------------------------| 
G|---------------------------------------------------------------------------| 
D|--------444444442222222244444444--------444444442-4------------------------| 
A|2222222222222222000000002222222222222222222222220-2-2----------------------| 
E|00000000------------------------00000000------------0----------------------| 

Outro (Lead Guitar 
e|---------------------------------------------------------------------------| 
B|---------------------------------------------------------------------------| 
G|---------------------------------------------------------------------------| 
D|-9676--9679--9676--96797-9676--9679--9676--9679----------------------------| 
A|7----97-----7----97-----7----97-----7----97-----2--------------------------| 
E|---------------------------------------------------------------------------| 


************************************ 

| /   slide up 
| \   slide down 
| h   hammer-on 
| p   pull-off 
| ~   vibrato 
| +   harmonic 
| x   Mute note 
| b   Bend 
| pb  Pre-bend 
| br  Bend release 
| pbr Pre-bend release 
| brb Bend release bend 

************************************ 
		  

See also:

tabs Ira! - Poço de Sensibilidade (Solo - Acustico Mtv) tabs Deep Purple - Smoke On The Water tabs Deep Purple - Smoke on the water (intro) tabs Ira! - Eu Quero Sempre Mais (Com Pitty, intro) tabs Deep Purple - Smoke on the Water (ver. 2) tabs Deep Purple - Knocking At Your Back Door
e-chords

Other versions:

tabs 30 Minutes Til - Life Alert
auto scroll beats size up size down change color hide chords drawings
tab show chords e-chords YouTube Clip e-chords hide all tabs e-chords go to top tab

share