18 Hertz

I Blindly Follow Orders (bass Tab)

18 Hertz

tabs

by  NL STRUMMER

save to print version add songbook text version e-mail correct tuner
chordsukulelecavacokeyboardtabbassdrumsharmonicaflute Guitar Pro
close

there isn't a video lesson for this song

chords

I Blindly Follow Orders (bass Tab)

	  		I Blindly Follow Orders (Bass Tab)  
By: 18 Hertz 

Normal tuning. E A D G 

This is a funky lick 
Go www.garageband.com/18hertz to hear the tune and play along. Peace. 

Verses 
     
|--------------------------------||--------------------------------------------||---------------|| 
|.-------------------------------.||.-----------------------------h-----0------||---------------|| 
|.-------------------------------.||.-------------------------0-----2----------||---------------|| 
|.--0-0----3---3----3---------.||.--------0---0---3--3---------------------||---------------|| 

  
Chorus 

|--------------------------------||---------------------------------||---------------|| 
|.-------------------------------.||.--------------------------------||---------------|| 
|.-------------------------------.||.--------------------------------||---------------|| 
|.--------------0----------------||-----------------3---------------||------5-------|| 
  


|---------------------------||---------------------||--------------------------------|| 
|.-------------------------.||.---------------------||--------------------------------|| 
|.-------------------------.||.---------------------||--------------------------------|| 
|.-----------0------------.||.---- -----3----------||--------------5-------0/12----|| 

/ means slide 
h means hammer on 

F.Y.I.  ?18 hertz is all the energy our brains need to operate and make music. 

Slide to the 12th fret at the end of the Chorus 
		  

Full key step upFull key step up
Half key step upHalf key step up
Half key step downHalf key step down
Full key step downFull key step down
hide glossary

See also:

tabs Player - Baby Come Back tabs Lynyrd Skynyrd - Simple Man tabs Johnny Cash - Folsom Prison Blues (key of E) tabs Jimi Hendrix - Voodoo Child tabs Lynyrd Skynyrd - That smell (full song) tabs Creedence Clearwater Revival - Suzie q
e-chords

Other versions:

tabs 18 Hertz - I Blindly Follow Orders (bass Tab)
auto scroll beats size up size down change color hide chords drawings
tab show chords e-chords YouTube Clip e-chords hide all tabs e-chords go to top tab

share