18 Hertz

I Am Your King

18 Hertz

tabs

by  NL STRUMMER

save to print version add songbook text version e-mail correct tuner
chordsukulelecavacokeyboardtabbassdrumsharmonicaflute Guitar Pro
close

there isn't a video lesson for this song

chords

I Am Your King

	  		                  I Am Your King 
                By Band: 18 Hertz  
                (Darrell Gilliard) 

This song is played in EM. Listen to the song on  
Garageband.com under band name 18 Hertz and you  
will get a feel for the strumming patterns 
This song uses a a Junior Blues Deville Amp and a  
Boss Mega Distortion pedal for distortion.  
Guitar is recorded with condenser mics and  
shure 57 and 58 dynamics.  

Intro Riff: 

D-------------------0--2------------------------------------------- 

A------------2----------------------------------------------------- 

E---0---3---------------------------------------------------------- 


D-------------------0---222222------0------------------------------ 

A------------2----------------------------------------------------- 

E---0---3---------------------------------------------------------- 



D-------------------0---222222--222222----------------------------- 

A------------2----------------------------------------------------- 

E---0---3---------------------------------------------------------- 


D-------------------0--2--0---------------------------------------- 

A------------2----------------------------------------------------- 

E---0---3---------------------------------------------------------- 


Verse Power Chord Progression Played with distortion on 
Les Paul through a blues deville amp with boss mega 
distortion pedal. ya baby ya... lol.. 

G-----------------------------------------7--------------------------- 

D---2------5------7-----2-----2-----5-----7-----2-----5----4----3----- 

A---2------5------7-----2-----2-----5-----5-----2-----5----4----3----- 

E---0------3------5-----0-----0-----3-----------0-----3----2----1----- 
   
    E5     G5    A5    E5     E5    G5    D5   E5    G5   F#5   F5 



Chorus Chord Progression 

G-----------------------9-------7-------------------------- 

D---2--2--2--2----------9-------7------------------------- 

A---2--2--2--2----------7-------5-------------------------------------- 

E---0--0--0--0-------------------------------------------------------- 
      
All E5's are Palm muted 


Lead Riff Played on B and E strings with Strat.  


E-----0----0----0----0--------------0--0--0--0--0--0--0--0------------ 

B-----8----7----5----3-------------12-12-12-12-12-12-12-15------------ 



Lead Riff played throughout the verses. 

D---------------------0--2--------------------------------------------- 

A-------------0--2----------------------------------------------------- 

E---0--3--------------------------------------------------------------- 






Verse 1 

         All that you think                
         And all that you see 
         All those things so dark here          
         Are my reality 
         I am your king and 
         I am your friend 
         I am your lover 
         Until the bitter end 

Verse 2 

        I existed 
        I floated out to sea 
        Cast out on the emptiness 
        For all eternity 
        Sailing on the waves 
        Blackened before me 
        Doomed to float alone 
        On this endless sea 

Chorus 

        I would never hurt you 
        I am your best friend 
        I would never lie to you 
        I'm here to the end 
        I would never steal from you 
        I won't do that again 
        I just want to love you 
        Can't we still be friends 

        Trust me  
        Can't we still be friends 
        Look at my tears 
        Can't we try again 
        Don't I look sincere 
        I want to try again 
        I would never lie to you 
        I'm here to the end 

        If you just love me 
        I'm here to the end 
        I'll take care of you 
        Until the bitter end 
        Don't believe in what you hear 
        From bible toting men 
        He was all made up and he 
        Won't come again 

        Would I lie to you. 
		  

See also:

tabs Player - Baby Come Back tabs Lynyrd Skynyrd - Simple Man tabs Johnny Cash - Folsom Prison Blues (key of E) tabs Jimi Hendrix - Voodoo Child tabs Lynyrd Skynyrd - That smell (full song) tabs Creedence Clearwater Revival - Suzie q
e-chords

Other versions:

tabs 18 Hertz - I Am Your King
auto scroll beats size up size down change color hide chords drawings
tab show chords e-chords YouTube Clip e-chords hide all tabs e-chords go to top tab

share