18 Hertz

Blue Mini Skirt

18 Hertz

tabs Expert expert

by  NL STRUMMER

save to print version add songbook text version e-mail correct tuner
chordsukulelecavacokeyboardtabbassdrumsharmonicaflute Guitar Pro
close

there isn't a video lesson for this song

chords

Blue Mini Skirt

	  		                                      Blue Mini Skirt 

                                Played By: 18 Hertz  
                        Music & Lyrics By Darrell Gilliard 

This song is played in the key of E. Listen to the song on Garageband.com 
under the band name 18 Hertz and you will get a feel for the strumming  
patterns. 

G------------------------------------------------------------- 

D------------------------------------------------------------- 

A---------9/-----------7/----------9/----------7/------------- 

E---------7/-----------5/----------7/---------5/-------------- 


Intro 

         I'm looking for love 
         How bout you 
         Still lookin for love 
         How bout you 
         I'm looking for love 
         How bout you 
         Still lookin for love 
         How about you 
         Too  

G------------------------------------------------------------- 

D------------------9/---------7/--------5--------------------- 

A------------------7/--------5/---------3--------------------- 

E------------------------------------------------------------- 

Verse 1 

        I think about you baby 
        In your blue mini skirt 
        Your black nylons are my 
        favourite desert 

        I don't care if they call 
        Me perverted make love to me 
        I think about your blue mini skirt baby 
        It's all that I see 

         
G---------------------------------------------------------------- 

D---------------7/------5-----------------7-------------------- 

A-----7-7------5/-------3-----7-7------5-------------------- 

E-----5-5---------------------5-5----------------------------- 

     
        I think about your black nylons 
        Rolled up by your thighs 
        You're driving me crazy 
        When you look in my eyes 


Riff 1 
G----------------------------------------------------------- 

D--------------------------7-------5---------------------- 

A---------77--77--77-------5-------3---------------------- 

E---------55--55--55--------------------------------------- 

Riff 2 
G------------------------------------------------------------ 

D---------------7/------5-----------------7/------5-------------- 

A-----7-7------5/-----3-----7-7--------5/------3-------------- 

E-----5-5--------------------5-5--------------------------- 

Play riff 1 twice and then riff 2 twice hold last chord 
        

Verse 3 

        I think about your blue mini skirt baby 
        All day long 


You play this with the faster rhythm pattern  
G------------------------------------------------------------ 

D------------7/------5---------------- 

A-----7-----5/------3----7-------- 

E-----5------------------5--------- 



        I think about your black nylons 
        It's turning me on 
        Are you lookin for love 

G------------------------------------------------------------ 

D-----7---------7----------7-----------7------------------- 

A-----5---7-----5----7----5----7-----5-----7------------- 

E---------5-----------5----------5------------5------------- 


G------------------------------------------------------------ 

D-------------7-------5-------------7--------5------------ 

A-----7-------5-------3-----7-------5-------3------------ 

E-----5----------------------5------------------------------ 

     
         Still lookin for love baby 


G------------------------------------------------------------ 

D-------------7-------5-------------------------------------- 

A-----7-------5-------3-----7-7----------------------------- 

E-----5----------------------5-5----------------------------- 
		  

See also:

tabs Player - Baby Come Back tabs Lynyrd Skynyrd - Simple Man tabs Johnny Cash - Folsom Prison Blues (key of E) tabs Jimi Hendrix - Voodoo Child tabs Lynyrd Skynyrd - That smell (full song) tabs Creedence Clearwater Revival - Suzie q
e-chords

Other versions:

tabs 18 Hertz - Blue Mini Skirt
auto scroll beats size up size down change color hide chords drawings
tab show chords e-chords YouTube Clip e-chords hide all tabs e-chords go to top tab

share