12-Stones

The Way I Feel (V.2)

12-Stones

tabs

by  RANIEL_G3

save to print version add songbook text version e-mail correct tuner
chordsukulelecavacokeyboardtabbassdrumsharmonicaflute Guitar Pro
close

there isn't a video lesson for this song

chords

The Way I Feel (V.2)

	  		Intro / Verso: 
 
e|-------------|-------------|------------|-----------------| 
B|-------------|-------------|------------|-----------4-----| 
G|-----3-----3-|-----3-----3-|----3-----3-|-----3---3---3---| 
D|---1---1-----|---1---1-----|--1---1-----|---1---1-------1-| 
A|-3-------3---|-------------|3-------3---|-----------------| 
E|-------------|4--------4---|------------|4----------------| 
 
Coro: 
Os acordes usados são os seguintes: Cm, G#, D#, A#  
Talvez você já saiba, mas eu coloquei todas as notas aqui, caso precise. 
 
      Cm        G#        D#        A# 
e|----3----|----4----|----6----|----6----| 
B|----4----|----4----|----8----|----6----| 
G|----5----|----5----|----8----|----7----| 
D|----5----|----6----|----8----|----8----| 
A|----3----|----6----|----6----|----8----| 
E|----3----|----4----|----6----|----6----| 
 
 
        Cm       G#    D#     A# 
Cause I hate the way I feel tonight 
      Cm     G#       A# 
And I know I need you in my life 
      Cm       G#    D#     A# 
Yes I hate the way I feel inside 
      Cm         G#       A# 
And I promise to make the sacrifice 
		  

Full key step upFull key step up
Half key step upHalf key step up
Half key step downHalf key step down
Full key step downFull key step down
hide glossary

See also:

tabs Simon & Garfunkel - Sounds of silence tabs The Strokes - Juicebox tabs John Mayer - Belief tabs Guns N' Roses - Sweet Child o' mine tabs Guns N' Roses - November Rain tabs Foo Fighters - Everlong (acústico)
e-chords

Other versions:

tabs 12-Stones - The way i feel tabs 12-Stones - The Way I Feel (solo) tabs 12-Stones - The Way I Feel (V.2) tabs The Zombies - The Way I Feel Inside
auto scroll beats size up size down change color hide chords drawings
tab show chords e-chords YouTube Clip e-chords hide all tabs e-chords go to top tab

share