Listen to the riff and learn with the tabs

Avril Lavigne - Nobody's Fool

Avril Lavigne - Nobody's Fool

Instrument: Electric Guitar

by MatKat

Easy

Learn the tabs while listening to its mp3. View more lessons

tab
     E(VII)            E/D#                B                 A
e||-------------------------------------------------------------------------------|
B||-------------------------------------------------------------------------------|
G||------9-------9---------9-------9-----------9-------9---------9-------9-----9--|
D||----9---9---9---9-----9---9---9---9-------9---9---9---9-----9---9---9---9------|
A||--7-------7-------7-6-------6-------6---------------------0-------0-------0----|
E||--------------------------------------7h9-------9-------9----------------------|

                     Step up...        Step up...
     E(VII)            E/D#                B                 A
e||-----------------------------------------------------------------------------|
B||-----------------------------------------------------------------------------||
G||------9-------9---------9-------9-----------9-------9---------9-------9------||
D||----9---9---9---9-----9---9---9---9-------9---9---9---9-----9---9---9---9----||
A||--7-------7-------7-6-------6-------6---------------------0-------0----------||
E||--------------------------------------7h9-------9-------9--------------------|/

You can play this also on acoustic guitar
tab
Search