Westcoast Consortium

To Please Louise

Westcoast Consortium

keyboards

by  EDUCASTILHO

save to print version add songbook text version e-mail correct tuner
chordsukulelecavacokeyboardtabbassdrumsharmonicaflute Guitar Pro
close

there isn't a video lesson for this song

chords

To Please Louise

	  		

Tuning: EADG 

0:07 

G|5-----------------------3-----------------------2-----------------------| 
D|------------------------------------------------------------------------| 
A|------------------------------------------------------------------------| 
E|------------------------------------------------------------------------| 

G|------------------------------------------| 
D|5-----------------------------------------| 
A|------------------------------------------| 
E|------------------------------------------| 


0:16 

G|------------------------------------------------------------------------------------------------| 
D|------------------------------------------------------------------------------------------------| 
A|3-----3-----3-----3-----3-----3-----3-----0-----------------------------------------------------| 
E|----------------------------------------------3-1-----1-----1-----1-----1-----1-----1-----1-----| 

G|------------------------| 
D|------------------------| 
A|3-----3-----3-----3-----| 
E|------------------------| 

0:24 

G|------------------------------------------------------------------------------------------------| 
D|------------------------------------------------2-----------------------------------------------| 
A|0-----------------------2-----------------------------------------------2-----------------------| 
E|------------------------------------------------------------------------------------------------| 

G|------------------------------------------------------------------------| 
D|------------------------------------------------2-----------------------| 
A|0-----------------------2-----------------------------------------------| 
E|------------------------------------------------------------------------| 

0:37 

G|------------------------------------------------------------------------| 
D|------------------------------------------------------------------------| 
A|3-----3-----3-----3-----3-----3-----3-----0-----------------------------| 
E|----------------------------------------------3-1-----1-----1-----1-----| 

G|------------------------------------------------| 
D|------------------------------------------------| 
A|------------------------------------------------| 
E|3-----3-----3-----3-----3-----3-----3-----------| 

0:46 

G|5-----------------------3-----------------------2-----------------------------------------------| 
D|------------------------------------------------------------------------5-----3-----------------| x2 
A|------------------------------------------------------------------------------------6-----5-----| 
E|------------------------------------------------------------------------------------------------| 

1:00 

G|------------------------------------------------------------------------------------------------| 
D|----------------------------------------------2-3-----3-----3-----3-----3-----3-----3-----3-----| 
A|3-----3-----3-----3-----3-----3-----3---3-5-----------------------------------------------------| 
E|------------------------------------------------------------------------------------------------| 

G|------------------------------------------------| 
D|------------------------------------------------| 
A|3-----------------------------------------------| 
E|------------------------------------------------| 

1:10 

G|------------------------------------------------------------------------------------------------| 
D|------------------------------------------------2-----------------------------------------------| 
A|0-----------------------2-----------------------------------------------2-----------------------| 
E|------------------------------------------------------------------------------------------------| 

G|------------------------------------------------------------------------| 
D|------------------------------------------------2-----------------------| 
A|0-----------------------2-----------------------------------------------| 
E|------------------------------------------------------------------------| 

1:23 

G|------------------------------------------------------------------------| 
D|------------------------------------------------------------------------| 
A|3-----3-----3-----3-----3-----3-----3-----0-----------------------------| 
E|----------------------------------------------3-1-----1-----1-----1-----| 

G|------------------------------------------------| 
D|------------------------------------------------| 
A|------------------------------------------------| 
E|3-----3-----3-----3-----3-----3-----3-----------| 

1:32 

G|5-----------------------3-----------------------2-----------------------------------------------| 
D|------------------------------------------------------------------------5-----3-----------------| x2 
A|------------------------------------------------------------------------------------6-----5-----| 
E|------------------------------------------------------------------------------------------------| 

1:46 

G|------------------------------------------------------------------------------------------------| 
D|----------------------------------------------2-3-----3-----3-----3-----3-----3-----3-----3-----| 
A|3-----3-----3-----3-----3-----3-----3---3-5-----------------------------------------------------| 
E|------------------------------------------------------------------------------------------------| 

G|------------------------------------------------------------------------------------------------| 
D|------------------------------------------------------------------------------------------------| 
A|3-----------------------------------------------3-----3-----3-----3-----3-----3-----3-----3-----| 
E|------------------------------------------------------------------------------------------------| 

2:00 

G|------------------------------------------------------------------------------------------------| 
D|------------------------------------------------------------------------5-----3-----------------| 
A|3-----3-----3-----3-----1-----1-----1-----1-----0-----0-----0-----0-----------------6-----5-----| 
E|------------------------------------------------------------------------------------------------| 

G|5-----5-----5-----5-----3-----3-----3-----3-----2-----2-----2-----2-----------------------------| 
D|------------------------------------------------------------------------5-----3-----------------| 
A|------------------------------------------------------------------------------------6-----5-----| 
E|------------------------------------------------------------------------------------------------| 

2:14 

G|5-----5-----5-----5-----3-----3-----3-----3-----2-----2-----2-----2-----| 
D|------------------------------------------------------------------------| 
A|------------------------------------------------------------------------| 
E|------------------------------------------------------------------------| 

G|------------------------------------------| 
D|5-----------------------------------------| 
A|------------------------------------------| 
E|------------------------------------------| 

2:23 

G|------------------------------------------------------------------------------------------------| 
D|----------------------------------------------2-3-----3-----3-----3-----3-----3-----3---3-2-----| 
A|3-----3-----3-----3-----3-----3-----3---3-5---------------------------------------------------5-| 
E|------------------------------------------------------------------------------------------------| 

G|------------------------------------------------------------------------------------------------------| 
D|----------------------------------------------2-3-----3-----3-----3-----3-----3-----3-----3---2-------| 
A|3-----3-----3-----3-----3-----3-----3---3-5-----------------------------------------------------2-----| 
E|------------------------------------------------------------------------------------------------------| 
		  

auto scroll beats size up size down change color columns
tab show chords e-chords YouTube Clip e-chords hide all tabs e-chords go to top tab

share