Victor Flores

Cristo Te Amamos

Victor Flores

keyboards Easy easy

by  GUSTSILVA

save to print version add songbook text version e-mail correct tuner
chordsukulelecavacokeyboardtabbassdrumsharmonicaflute Guitar Pro
close

there isn't a video lesson for this song

chords

Cristo Te Amamos

	  		



C                 Am7 
Cristo te amamos, eres más que suficiente 

F                 C 
Cristo te amamos, refugio roca fuerte 

C                 Am7 
Cristo te amamos, venciste a la muerte 

F                 C 
Cristo te amamos, salvador hijo de Dios 



Am7      F 
Solo tú, Eres luz 

C 
Quien guía hoy mis pasos 

C 
Quien guía hoy mis pasos 

Am7      F 
Solo tú, Eres luz 

C 
Tu palabra guía en mis pasos 

C 
Tu palabra guía en mis pasos 



Am7        F               C 
Hay poder, en el nombre de Jesús 

Am7        F               C 
Hay poder, en el nombre de Jesús 





C                 Am7 
Cristo te amamos, eres más que suficiente 

F                 C 
Cristo te amamos, refugio roca fuerte 

C                 Am7 
Cristo te amamos, venciste a la muerte 

F                 C 
Cristo te amamos, salvador hijo de Dios 

Adorno A (se toca durante el próximo verso): 
e|---------------------------------------------------------------------------| 
B|---------------------------------------------------------------------------| 
G|----------------5---9--9-------------7--9h--9-----7-----5-----4-----2------| 
D|-0-2H--2--0-2H-------------0-2H--2-----------------------------------------| 
A|-------0--------3---7--7---------3---5--7h--7--5-----3-----2-----0---------| 
E|---------------------------------------------------------------------------| 


Am7      F 
Solo tú, Eres luz 

C 
Quien guía hoy mis pasos 

C 
Quien guía hoy mis pasos 

Adorno B (se toca el resto de la canción) 
e|--------------------------------------------| 
B|-13-----13------13------12-13h-12p----------| 
G|-----12-----12------12--------------12------| 
D|----------------------------------------14--| 
A|--------------------------------------------| 
E|--------------------------------------------| 

e|-----------------------------------------------------------------| 
B|-13-----13------13------13------15-------15------15-------13--12-| 
G|-----12-----12------12------12------12-------12------12----------| 
D|-----------------------------------------------------------------| 
A|-----------------------------------------------------------------| 
E|-----------------------------------------------------------------| 




Am7        F               C 
Hay poder, en el nombre de Jesús 

Am7        F               C 
Hay poder, en el nombre de Jesús 


F 
Donde dos o tres estan 

           Am7 
Ahí estas tú 

F 
Donde tú estas 

               Am7 
Ahí hay libertad 

F 
Donde hay libertad 

                    Am7 
Las cadenas se caen 

F 
Hay poder en el nombre 

Am7 
Hay poder en la sangre 

F 
Hay poder en la sangre 



Am7        F               C 
Hay poder, en el nombre de Jesús 

Am7        F               C 
Hay poder, en el nombre de Jesús 

Am7        F               C 
Hay poder, en el nombre de Jesús 
		  

Full key step upFull key step up
Half key step upHalf key step up
Half key step downHalf key step down
Full key step downFull key step down
hide glossary

See also:

chords Ira! - Tanto Quanto Eu chords Ira! - Vida Passageira chords Ira! - Eu Quero Sempre Mais chords Ike & Tina Turner - Proud Mary chords Ira! - Dias de Luta chords Deep Purple - Lazy/new chords
e-chords

Other versions:

keyboards Bethel Music - Cristo Te Amamos keyboards Victor Flores - Cristo Te Amamos
auto scroll beats size up size down change color columns
tab show chords e-chords YouTube Clip e-chords hide all tabs e-chords go to top tab

share