Rosa de Saron

home > Rosa de Saron

No meu coração Keyboard

Rosa de Saron

Difficulty: BeginnerBeginner

by Wilminha

tuner correct add songbook print version text version save to e-mail
chordsukulelecavacokeyboardtabbassdrumsharmonicsflute Guitar Pro
chords

No meu coração

  		INTRO: Dm  Bb9  Dm  Bb9     

Obs.: na 2a(do solo) começa a vocalização: uuuu uuu uuuu uu..... 


 
                     
  
Dm         Bb9           Dm                                 Bb9    
Fazer, falar ou esperar vir de alguém  
Dm                      Bb9                              Gm                         Bb9                     
Algo que se faz compreender que amar é se dar pelo outro  
F                               C  
Um sentimento ágape envolto  
Gm                               Bb9                                                   F                   C  
Como águia enxergar  mais perto sobre o que é o amor  
  
Dm                      Bb9  
Quem falou quis bem buscar   
Dm                                 Bb9  
Sabe quando não tem com quem falar?   
Dm           Bb9  
Alguém, alguém me fitou  
Gm                 Bb9                                 F                                      C  
**num coma dentro da cidade, onde o silêncio me faz sofrer  
Gm                                  Bb9  
Minha vida me ensinou que há tempo  
F                                       C  
Que nem tudo, nem todos se perderam  
Gm                        Bb9                         F                     C                       Gm   Bb9  
A inocência é boa pra quem sabe amar e sabe entender  
                    F                         C  
Que nem todos chorarão  
  
  
F       C        Dm       C9      Bb  
Preciso  de  você  aqui   
        Am7       Gm             C                             
Junto  de  mim,  no  meu  coração  
F       C        Dm       C9      Bb  
Preciso  de  você  aqui   
        Am7       Gm             C                       Bb      
Junto  de  mim,  no  meu  coração  
  
  
Dm                      Bb9    C  
Quem falou quis bem buscar   
Dm                                 Bb9            C  
Sabe quando não tem com quem falar?   
Dm                 Bb9               C  
Alguém, alguém me fitou  
Gm                 Bb9                                 F                                      C  
Num coma dentro da cidade, onde o silêncio me faz sofrer  
Gm                                  Bb9  
Minha vida me ensinou que há tempo  
F                                       C  
Que nem tudo, nem todos se perderam  
Gm                        Bb9                         F                     C                       Gm   Bb9  
A inocência é boa pra quem sabe amar e sabe entender  
                    F                         C  
Que nem todos chorarão  



e|---------------------------------------10----12-12b-12-10-12--17b-17-15------------------- 
b|----------------------------5-6-8-6-5-----10----10---------------------------------------18---------------- 
g|------------------------------------------5--------------------------------------------------------17------------- 
d|-------------------------5--------------------------------------------------------------------- 
a|----------10-12-12----------------------------------------------------------------------- 
E|-10-12-------------------------------------------------------------------------------- 

e|-----12-13----------10~----15-12--------------------------------------------------------- 
b|---6---------------10~----------------13------------------------------------------------------- 
g|-9------------7-9--------------------------14-12\9-10--------------------------------------------- 
d|-------------------------------------------------------------10/12---------------------------------------- 
a|---------------------------------------------------------------------10/12----------------------------------- 
E|------------------------------------------------------------------------------10---------------------------------
  
  
  
F       C        Dm       C9      Bb  
Preciso  de  você  aqui   
        Am7       Gm             C                             
Junto  de  mim,  no  meu  coração  
F       C        Dm       C9      Bb  
Preciso  de  você  aqui   
        Am7       Gm             C                       Bb      
Junto  de  mim,  no  meu  coração  
  
  
SOLO: (Dm C Bb  F Gm)3x   Dm  C  Bb   
  
  
F       C        Dm       C9      Bb  
Preciso  de  você  aqui   
        Am7       Gm             C                             
Junto  de  mim,  no  meu  coração  
F       C        Dm       C9      Bb  
Preciso  de  você  aqui   
        Am7       Gm             C                       Bb      
Junto  de  mim,  no  meu  coração  


	  

Full key step upFull key step up
Half key step upHalf key step up
Half key step downHalf key step down
Full key step downFull key step down
Search Paypal
auto scroll beats size up size down change color columns
tab show chords e-chords YouTube Clip e-chords hide all tabs e-chords go to top tab