Roger Creager

The Everclear Song

Roger Creager

keyboards

by  UBIRBOMFIM

save to print version add songbook text version e-mail correct tuner
chordsukulelecavacokeyboardtabbassdrumsharmonicaflute Guitar Pro
close

there isn't a video lesson for this song

chords

The Everclear Song

	  		
Intro 
e|----3------3----3------3---| 
B|----3------3----3------2---| 
G|----0------0----0------3---| 
D|----0------2----0--2-0-0---| 
A|----2--2-3------2----------| 
E|--3-----------3------------| 

e|----3------3--3--3--3-------| 
B|----3------3--3--2--3-------| 
G|----0------0--0--3--0-------| 
D|----0------2--0--0--0-------| 
A|----2--2-3----2-----2-------| 
E|--3-----------3-----3-------| 
		  

auto scroll beats size up size down change color columns
tab show chords e-chords YouTube Clip e-chords hide all tabs e-chords go to top tab

share