Os Anjos

A Tua Palavra Keyboard

Os Anjos

Difficulty: EasyEasy

by ang%2Dletra

tuner correct add songbook print version text version save to e-mail
chordsukuleleukulelecavacokeyboardtabbassdrumsharmonicsflute Guitar Pro
close

there isn't a video lesson for this song

chords

A Tua Palavra

  		Intro:  Em  A  D  Bm  Em  F#7  Bm 



  Bm 
Quando estou triste, 
   Em             A 
Ou quando na alegria, 
      D              Bm 
Te encontro meu  Senhor, 
     Em                  A 
Nos passos do meu dia a dia. 

   Bm 
Eu paro e te agradeço porque 
    Em              A 
Tu sempre comigo estás, 
    D                    Bm 
Eu não saberia, Senhor, viver 
  Em            A 
Longe do teu olhar. 

        Em              A 
A Tua Palavra (meu Senhor) 
            D     Bm 
É fonte de vida ôuô. 
         Em           F#7 
A Tua Palavra (meu Senhor) 
                 Bm      B7 
Sustenta o meu viver. 

           Em      A 
Oh! Meu Senhor e Rei, 
           D       Bm 
Oh! Meu grande Senhor, 
          Em        F#7 
A Tua Palavra 
            Bm 
Eu quero viver. 

Sustenta minha vida 

Solo: Em  A  D  Bm  Em  F#7  Bm 
E|---------10-9--------9-10-14-14-14-12-10--------------------------------10---------------------------------- 
B|-10-8-12-------10-12---------------------12--------------------------------12-10---------------------------- 
G|--------------------------------------------------7-7-9-------7-11-11-11---------11-9-7--------------------- 
D|----------------------------------------------7-9---------7-9---------------------------9---------7---7-8-9- 
A|--------------------------------------------9-----------9---------------------------------9-7-8-9---9------- 
E|------------------------------------------------------------------------------------------------------------

(Repete Tudo) 

Solo final: Em  A  D  Bm  Em  F#7 Bm 

E|------------------------------------------------------------------------------------------------------------ 
B|--8-8-8-8-7------------------------------------------------------------------------------------------------- 
G|-------------9-7-6---------7-11-11-11-9-7---------------------7-9-9-9-7-9-11-11----------------7-6-7-------- 
D|-------------------7---7-9-----------------9--------7----7-9---------------------------7---7-9-------------- 
A|---------------------9-----------------------7-8-9----9--------------------------7-8-9---9------------------ 
E|------------------------------------------------------------------------------------------------------------ 
	  

Full key step upFull key step up
Half key step upHalf key step up
Half key step downHalf key step down
Full key step downFull key step down
auto scroll beats size up size down change color columns
tab show chords e-chords YouTube Clip e-chords hide all tabs e-chords go to top tab

share with facebook

Search Paypal