Lucas Dantas da Silva

Deus Da Minha Vida

Lucas Dantas da Silva

keyboards Intermediate intermediate

by  AMAN_CLAUDINO

save to print version add songbook text version e-mail correct tuner
chordsukulelecavacokeyboardtabbassdrumsharmonicaflute Guitar Pro
close

there isn't a video lesson for this song

chords

Deus Da Minha Vida

	  		
Intro:  Dm7  Bb9(11+) 

    Dm7                  Bb9(11+) 
E|-----------------------------------------| 
B|------------5---6-----6----X-------------| 
G|-------5----5---5-----5----X-------------| 
D|-----7----7---7-------0----X-------------| 
A|-3/5-----------------------X-------------| 
E|----------------------6----X-------------| 

(Primeira Parte) 
 Dm7  Bb9(11+)  Dm7 Bb9(11+) 
Deus meu       Pai meu 
  Dm7 Bb9(11+)  Dm7     Bb9(11+) 
Amor meu       Tudo, razão de tudo 

 Dm7  Bb9(11+)  Dm7  Bb9(11+) 
Deus meu        Ar  Meu 

   Dm7            Bb9(11+) Dm7 
Farol O farol que eu   preciso 

     Bb9(11+) 
Como eu preciso... 



Segunda Parte: 
       Dm7                 G 
Eu preciso Te sentir todo dia 
     Dm7                     G 
E olhar pra Tua luz pra não me perder 
        Dm7                    G 
Meu Senhor, Tu és a minha alegria 
       Bb9(11+) 
Eu preciso... 



Refrão: 

               Bb9(11+) 
Deus da minha vida 
 C9     Dm7 
Fica comigo 
           Bb9(11+) 
Sou a sua casa 
 C9      Dm7 
Mora em mim 
               Bb9(11+) 
Deixa eu Te dizer 
    C9       Dm7 
O que eu preciso, Pai 
       Bb9(11+) 
Eu preciso do Senhor... 

( Bb5(9)  C5(9)  Dm7 ) (4x) 

Passagem: Pós Refrão 

    Bb5(9)    C5(9) Dm7 
E|---1-------------------------------------| 
B|-----1---------------6-5------6-5--------| 
G|-------3-3/5---3-----5-5------5-5--------| 
D|---------3/3-3-----7-------7-------------| 
A|-1-------1/3-----5-------5---------------| 
E|-----------------------------------------| 

    Bb5(9)  C5(9)   Dm7 
E|---1--------------------------------------| 
B|-----1------  ---6------------------------| 
G|-------3-3/5---3-5------------------------| 
D|---------3/5-3---7------------------------| 
A|-1-------1/3-----5------------------------| 
E|------------------------------------------| 

(Repete Primeira Parte) 

(Repete Segunda Parte) 

(Repete Refrão) 
    C9       Dm7 
O que eu preciso, Pai 
       Bb9(11+)        C9 
Eu preciso do Senho____Or 

Base Solo: 
( Bb9(11+) C9  Dm7 ) (8x) Bb9(11+) 

(Repete Refrão) 
		  

Full key step upFull key step up
Half key step upHalf key step up
Half key step downHalf key step down
Full key step downFull key step down
hide glossary

See also:

chords Gabriela Rocha - Creio Que Tu És A Cura chords Voz da Verdade - Pra Que ? chords Corinhos Evangélicos - A Alegria Está no Coração chords Fernandinho - Faz Chover (Simplificada) chords Aline Barros - Digno é o Senhor chords Toque no Altar - Deus De Promessas
e-chords

Other versions:

keyboards Eliezer Rodrigues - Deus da MInha Vida keyboards Thalles Roberto - Deus Da Minha Vida keyboards Lucas Dantas da Silva - Deus Da Minha Vida keyboards Cintia Alves - Deus Da Minha Vida keyboards Ir. Janete Silva - Deus Da Minha Vida keyboards Thalles Roberto - Deus Da Minha Vida (acustica)
auto scroll beats size up size down change color columns
tab show chords e-chords YouTube Clip e-chords hide all tabs e-chords go to top tab

share