Kaleidoscope

Love Song For Annie

Kaleidoscope

keyboards

by  EDSOOLIVEIRA

save to print version add songbook text version e-mail correct tuner
chordsukulelecavacokeyboardtabbassdrumsharmonicaflute Guitar Pro
close

there isn't a video lesson for this song

chords

Love Song For Annie

	  		

Tuning: EADG 

G|----------------------------------------------------------------| 
D|------------------------------------------------3---3---3-------| x2 
A|0---0---0-------3---3---3-------5---5---5-----------------------| 
E|----------------------------------------------------------------| 

G|----------------------------------------------------------------| 
D|----------------5---5---5-------3---3---3-----------------------| 
A|3---3---3---------------------------------------3---3---3-------| 
E|----------------------------------------------------------------| 

G|----------------------------------------------------------------| 
D|----------------5---5---5-------3---3---3-------5---5---5-------| 
A|0---0---0-------------------------------------------------------| 
E|----------------------------------------------------------------| 

0:18 

G|----------------------------------------------------------------| 
D|------------------------------------------------3---3---3-------| x2 
A|0---0---0-------3---3---3-------5---5---5-----------------------| 
E|----------------------------------------------------------------| 

G|----------------------------------------------------------------| 
D|----------------5---5---5-------3---3---3-----------------------| 
A|3---3---3---------------------------------------3---3---3-------| 
E|----------------------------------------------------------------| 

G|------------------------------------------------------------------------------------| 
D|----------------5---5---5-------3---3---3---3---5-----------------------------------| 
A|0---0---0---------------------------------------------------------------------------| 
E|------------------------------------------------------------------------------------| 

0:37 

G|----------------------------------------------------------------|. 
D|----------------------------------------------------------------|. 
A|3-----------------------3---3---2-----------------------2---2---|. 
E|----------------------------------------------------------------|. 
                                                                   . x2 
G|----------------------------------------------------------------|. 
D|3-----------------------3---3-----------------------------------|. 
A|--------------------------------3-------------------------------|. 
E|----------------------------------------------------------------|. 

0:56 

G|----------------------------------------------------------------| 
D|------------------------------------------------3---3---3-------| x2 
A|0---0---0-------3---3---3-------5---5---5-----------------------| 
E|----------------------------------------------------------------| 

G|----------------------------------------------------------------| 
D|----------------5---5---5-------3---3---3-----------------------| 
A|3---3---3---------------------------------------3---3---3-------| 
E|----------------------------------------------------------------| 

G|------------------------------------------------------------------------------------| 
D|----------------5---5---5-------3---3---3---3---5-----------------------------------| 
A|0---0---0---------------------------------------------------------------------------| 
E|------------------------------------------------------------------------------------| 

1:15 

G|----------------------------------------------------------------| 
D|----------------------------------------------------------------| 
A|3-----------------------3---3---2-----------------------2---2---| 
E|----------------------------------------------------------------| 

G|----------------------------------------------------------------| 
D|3-----------------------3---3-----------------------------------| 
A|--------------------------------3-------------------------------| 
E|----------------------------------------------------------------| 

G|----------------------------------------------------------------| 
D|----------------------------------------------------------------| 
A|3-----------------------3---3---2-----------------------2---2---| 
E|----------------------------------------------------------------| 

G|--------------------------------| 
D|3-------------------------------| 
A|--------------------------------| 
E|--------------------------------| 

G|----------------------------------------------------------------| 
D|3---------------------------------------------------------------| 
A|--------------------------------3-------------------------------| 
E|----------------------------------------------------------------| 

1:36 

G|----------------------------------------------------------------| 
D|--------------------------------5-----------------------5---5---| 
A|3-----------------------3---3-----------------------------------| 
E|----------------------------------------------------------------| 

G|----------------------------------------------------------------------------| 
D|----------------5---------------3-------------------------------------------| 
A|3---------------------------------------------------------------------------| 
E|----------------------------------------------------------------------------| 

1:46 

G|----------------------------------------------------------------| 
D|------------------------------------------------3---3---3-------| 
A|0---0---0-------3---3---3-------5---5---5-----------------------| 
E|----------------------------------------------------------------| 

G|----------------------------------------------------------------| 
D|------------------------------------------------3---3---3---3---| 
A|0---0---0-------3---3---3-------5---5---5-----------------------| 
E|----------------------------------------------------------------| 

G|----------------------------------------------------------------| 
D|----------------5---5---5-------3---3---3-----------------------| 
A|3---3---3---------------------------------------3---3---3-------| 
E|----------------------------------------------------------------| 

G|----------------------------------------------------------------| 
D|----------------5---5---5-------3---3---3-------5---5---5---5---| 
A|0---0---0-------------------------------------------------------| 
E|----------------------------------------------------------------| 

2:04 

G|----------------------------------------------------------------| 
D|------------------------------------------------3-----3-----3---| 
A|0---0---0-------3---3---3-------5---5---5-----------------------| 
E|----------------------------------------------------------------| 
		  

auto scroll beats size up size down change color columns
tab show chords e-chords YouTube Clip e-chords hide all tabs e-chords go to top tab

share