Johann Sebastian Bach

home > Johann Sebastian B...

Minuet In G Major Bwv Anh 116 Keyboard

Johann Sebastian Bach

Difficulty: nolevelnolevel

by aleffederico

tuner correct add songbook print version text version save to e-mail
chordsukulelecavacokeyboardtabbassdrumsharmonicsflute Guitar Pro
chords

Minuet In G Major Bwv Anh 116

  		
1  |     |     |      |     |     |      |     |     |      |     |     | 
e|-----------3-----2-|-3----------------|----------3-----2-|-3----------------| 
B|-----0--3----------|------------------|----0--3----------|------------------| 
G|*-0-----------2----|----------0-------|-0-----------2----|----------0-------| 
D|*-------------0----|-------0-----0----|-------------0----|-------0-----0----| 
A|-------------------|----2-----------2-|------------------|----2-----------2-| 
E|--3----------------|-3-----3-----3----|-3----------------|-3-----3-----3----| 

5  |     |     |      |     |     |      |     |     |      |     |     | 
e|--0-----0-----0--3-|----------------3-|------------------|------------------| 
B|-------------------|-3-----3-----3----|-1-----3--1--0--1-|------------------| 
G|--------0----------|-------0----------|-------------0----|-2----------------| 
D|-------------------|------------------|-------4----------|-0--2--4--0--2--4-| 
A|--3-----------3----|-2-----------2----|-0----------------|------------------| 
E|-------------------|------------------|------------------|------------------| 

9  |     |     |      |     |     |      |     |     |      |     |     | 
e|-----------3-----2-|-3----------------|----------3-----2-|-3----------------| 
B|-----0--3----------|------------------|----0--3----------|------------------| 
G|--0-----------2----|----------0-------|-0-----------2----|----------0-------| 
D|--------------0----|-------0-----0----|-------------0----|-------0-----0----| 
A|-------------------|----2-----------2-|------------------|----2-----------2-| 
E|--3----------------|-3-----3-----3----|-3----------------|-3-----3-----3----| 

13 |     |     |      |     |     |      |trp  |     |      |     |     | 
e|--0----------------|------------------|------------------|-------------------|| 
B|--------3--1--0----|-3-----1--0-------|---0-1------------|-------------------|| 
G|--------------0--2-|-------------2--0-|-2----------------|-0----------------*|| 
D|--------2----------|-------0----------|-------0-----4----|-------0----------*|| 
A|--3----------------|-2----------------|-3-----3-----5----|-------------------|| 
E|-------------------|------------------|------------------|-3-----------3-----|| 

17 |     |     |      |     |     |      |     |     |      |     |     | 
e|-------------------|------------------|-3--2--0--3--2--0-|-2----------------| 
B|--------0----------|------------------|-------------0----|----------0-------| 
G|*-0--2-----2--0----|-0----------------|-------0----------|------------------| 
D|*-2-----1--------4-|-2-----2-----2----|-2----------------|----1--4-----4--1-| 
A|--------------2----|-------2----------|------------------|-2-----2-----2----| 
E|-------------------|-------------0----|------------------|------------------| 

21 |     |     |      |     |     |      |trp  |     |      |     |     | 
e|--3--2--0--3--2--0-|-2-----------0----|-2-3-5------------|-0--------0--2----| 
B|--------------0----|-------0----------|-------0-----4----|-------3----------| 
G|--------0----------|-------2-----0----|-2----------------|------------------| 
D|--2----------------|------------------|------------------|-2----------------| 
A|-------------------|-2----------------|-------2-----2----|------------------| 
E|-------------------|------------------|------------------|------------------| 

25 |     |     |      |     |     |      |     |     |      |     |     | 
e|--3-----3--2--0----|-0-----0----------|------------------|------------------| 
B|-----------------3-|----------3--1--0-|-1-----1--0-------|------------------| 
G|--------------0----|------------------|-------------2--0-|------------------| 
D|--------0----------|-------0-----2----|------------------|-4-----2--4--0----| 
A|--2----------------|-3----------------|-0-----2-----3----|-5-----0-----5----| 
E|-------------------|------------------|------------------|------------------| 

29 |     |     |      |     |     |      |     |     |      |     |     | 
e|-------------------|------------------|------------------|------------------| 
B|-------------------|------------------|-1-----3--1--0--1-|------------------| 
G|--2----------------|-4----------------|-------------0----|-2----------------| 
D|--------0-----0----|-------0-----0----|-4-----0----------|-0--2--4--0--2--4-| 
A|-------------------|------------------|------------------|------------------| 
E|--2--2-----2-----2-|-3--3-----3-----3-|------------------|------------------| 

33 |     |     |      |     |     |      |     |     |      |     |     | 
e|-----------3-----2-|-3----------------|----------3-----2-|-3----------------| 
B|-----0--3----------|------------------|----0--3----------|------------------| 
G|--0-----------2----|----------0-------|-0-----------2----|----------0-------| 
D|--------------0----|-------0-----0----|-------------0----|-------0-----0----| 
A|-------------------|----2-----------2-|------------------|----2-----------2-| 
E|--3----------------|-3-----3-----3----|-3----------------|-3-----3-----3----| 

37 |     |     |      |     |     |      |     |     |      |     |     | 
e|--0----------------|------------------|------------------|-------------------|| 
B|--------3--1--0----|-3-----1--0-------|----0-------------|-------------------|| 
G|--------------0--2-|-------------2--0-|-2----------------|-0----------------*|| 
D|--------2----------|-------0-----0----|-------0-----4----|-------0----------*|| 
A|--3----------------|-2----------------|-3-----------5----|-------------------|| 
E|-------------------|------------------|------------------|-3-----------3-----|| 


************************************ 

| trp = triplet 
| *   = play twice 

************************************ 
	  

Search Paypal
auto scroll beats size up size down change color columns
tab show chords e-chords YouTube Clip e-chords hide all tabs e-chords go to top tab