Bon Jovi

home > Bon Jovi

Diamond Ring Keyboard

Bon Jovi

Difficulty: ExpertExpert

tuner correct add songbook print version text version save to e-mail
chordsukulelecavacokeyboardtabbassdrumsharmonicsflute Guitar Pro
chords

Diamond Ring

Year: 1995 - Album: These Days

  		Verse1 
Am 
DiAmond ring wear it on your hand 
Am 
It's gonna tell the world, I'm your only man 
Dm               Am 
DiAmond ring, diAmond ring 
D9                       F                     Am 
Baby you're my everything, diAmond ring 
Verse2 
Red, red rose brought it home to you 
Blood red rose, tells me that you're true 
Red, red rose, blood red rose 
Like a fire inside that grows, blood red rose 
Bridge: 
                  Dm             Am 
When you're hungry, I will fill you up 
                   Dm             Am 
When you're thirsty, drink out of my loving cup 
                  G                      F 
When you're crying, I'll be the tears for you 
             G               E                    Am 
There's nothing that I wouldn't do for you 
Solo  
Bridge 
When you're hungry, I will fill you up 
When you're thirsty, drink out of my loving cup 
When you're crying, I'll be the tears for you 
There's nothing that I wouldn't do 
                  F                              G 
You know, I bleed every night you sleep, 
                           Am       Am/G      F     
'Cause I don't know if I'm in your dreAms I want to be your  
       E4   E 
everything... 
(Verse1) 
Dm                            F           Am 
Darling you're my everything, diAmond ring 
             D9                 F                       Am 
Now you got me on your string.......diAmond ring. 

TABLATURAS 



c 1 

 --0--0--0----0--0--0----------------------------------------- 
 -----0--0h1--0----------------------------------------------- 
 --2-------------2--0----------------------------------------- 
 ----------------------1/2------------------------------------ 
 ------------------------------------------------------------- 
 ------------------------------------------------------------- 

c 2 


 ---------12(HA)--7--7/-5--5/3-3-3---\8--8--7--7--5--5---3--3- 
 ------------------------------------------------------------- 
 --12(HA)--------------------------\9--9--7--7--5--5---4--4--- 
 ------------------------------------------------------------- 
 ------------------------------------------------------------- 
 ------------------------------------------------------------- 

c 3 


 -----10---8---8----10---------------------------------------- 
 ------------------------------------------------------------- 
 --10----9---9---10------------------------------------------- 
 ------------------------------------------------------------- 
 ------------------------------------------------------------- 
 ------------------------------------------------------------- 


c 4 


 ----8---7---7---5-------------------------------------------- 
 ------------------------------------------------------------- 
 --9---7---7---5---------------------------------------------- 
 ------------------------------------------------------------- 
 ------------------------------------------------------------- 
 ------------------------------------------------------------- 


solo 


 --0--0--0----0--0--0-------0--0----5-----------5------------- 
 -------------------------------------5-------5---5-----5--5-- 
 --2--4--4\5--4--2--0-------4--5\7------5---7-------7---5--5-- 
 ----------------------1\2----------------7-----------7------- 
 ------------------------------------------------------------- 
 ------------------------------------------------------------- 



 -----------------5--7--8--7b8---5h7p5------------------------ 
 --5-----------5--------------------------8b10r9b10----------- 
 --------5h7~------------------------------------------------- 
 -----7------------------------------------------------------- 
 ------------------------------------------------------------- 
 ------------------------------------------------------------- 



 --5--------------------------------------8--10--10b12r8--10-- 
 -----9--5-------------------------5-8-10--------------------- 
 ----------7b9r7r5-------5-----5h7---------------------------- 
 -------------------7--5---5h7-------------------------------- 
 ------------------------------------------------------------- 
 ------------------------------------------------------------- 




 --8-----8-----8-----8/--------0---0-0-0-------0-------------- 
 --8h10--8h10--8h10--8/--6-----1h3-5-1-3p1-----3p1------------ 
 ------------------------7b8-5~------------2-0-----2-0--1/2~-- 
 ------------------------------------------------------------- 
 ------------------------------------------------------------- 
 ------------------------------------------------------------- 


final 


 -----9--9--7--7--5--5---3--3------0--0--0----0--0--0--0------ 
 --------------------------------1----0--0h1--0--------------- 
 ---9--9--7--7--5--5---4--4-----2--2-------------2--0--0h2---- 
 ------------------------------2------------------------------ 
 ------------------------------------------------------------- 
 ------------------------------------------------------------- 

	  

Full key step upFull key step up
Half key step upHalf key step up
Half key step downHalf key step down
Full key step downFull key step down
Search Paypal
auto scroll beats size up size down change color columns
tab show chords e-chords YouTube Clip e-chords hide all tabs e-chords go to top tab