Black Sabbath

home > Black Sabbath

Naivete In Black Keyboard

Black Sabbath

Difficulty: nolevelnolevel

by tarikike

tuner correct add songbook print version text version save to e-mail
chordsukulelecavacokeyboardtabbassdrumsharmonicsflute Guitar Pro
chords

Naivete In Black

  		

Tuning: Eb Ab Db Gb Bb Eb 




semi pm'd throughout 

GTL 
--------------------------------------------------------------------| 
-------------------------------------------------------^------------| 
------1-----------------1-----------------1-----1-----1-3-1---------| 
------1-----------------1-----------------1-----1-----1-3-1---------| 
--------------------------------------------------------------------| 
-1-3----3---3---3--1-3-----3---3---3--1-3---3-3---3-3-------3--3--3-| 


GTR 
---------------------------------------------------------------------| 
---------------------------------------------------------------------| 
---------------------------------------------------------------------| 
---------------------------------------------------------------------| 
---------------------------------------------------------------------| 
-----4--3---3---3--1-3--4--3---3---3--1-3-4-3-3-4-3-3-4/6-4--3--3--3-| 


GTL 
--------------------------------------------------------------------| 
-------------------------------------------------------^------------| 
------1-----------------1-----------------1-----1-----1-3-1---------| 
------1-----------------1-----------------1-----1-----1-3-1---------| 
--------------------------------------------------------------------| 
-1-3----3---3---3--1-3-----3---3---3--1-3---3-3---3-3-------3--3--3-| 


GTR 
---------------------------------------------------------------------| 
---------------------------------------------------------------------| 
---------------------------------------------------------------------| 
---------------------------------------------------------------------| 
---------------------------------------------------------------------| 
-1-3-4--3---3---3--1-3--4--3---3---3--1-3-4-3-3-4-3-3-4/6-4--3--3--3-| 




GTL 
--------------------------------------------------------------------| 
-------------------------------------------------------^------------| 
------1-----------------1-----------------1-----1-----1-3-1---------| 
------1-----------------1-----------------1-----1-----1-3-1---------| 
--------------------------------------------------------------------| 
-1-3----3---3---3--1-3-----3---3---3--1-3---3-3---3-3-------3--3--3-| 


GTR 
---------------------------------------------------------------------| 
---------------------------------------------------------------------| 
---------------------------------------------------------------------| 
---------------------------------------------------------------------| 
---------------------------------------------------------------------| 
-1-3-4--3---3---3--1-3--4--3---3---3--1-3-4-3-3-4-3-3-4/6-4--3--3--3-| 




GTL 
--------------------------------------------------------------------| 
-------------------------------------------------------^------------| 
------1-----------------1-----------------1-----1-----1-3-1---------| 
------1-----------------1-----------------1-----1-----1-3-1---------| 
--------------------------------------------------------------------| 
-1-3----3---3---3--1-3-----3---3---3--1-3---3-3---3-3-------3--3--3-| 


GTR 
---------------------------------------------------------------------| 
---------------------------------------------------------------------| 
---------------------------------------------------------------------| 
---------------------------------------------------------------------| 
---------------------------------------------------------------------| 
-1-3-4--3---3---3--1-3--4--3---3---3--1-3-4-3-3-4-3-3-4/6-4--3--3--3-| 



GTL 
--------------------------------------------------------------------| 
-------------------------------------------------------^------------| 
------1-----------------1-----------------1-----1-----1-3-1---------| 
------1-----------------1-----------------1-----1-----1-3-1---------| 
--------------------------------------------------------------------| 
-1-3----3---3---3--1-3-----3---3---3--1-3---3-3---3-3-------3--3--3-| 


GTR 
---------------------------------------------------------------------| 
---------------------------------------------------------------------| 
---------------------------------------------------------------------| 
---------------------------------------------------------------------| 
---------------------------------------------------------------------| 
-1-3-4--3---3---3--1-3--4--3---3---3--1-3-4-3-3-4-3-3-4/6-4--3--3--3-| 



GTL 
-------------------------------------------------------------------------| 
-------------------------------------------------------^-----------------| 
------1-----------------1-----------------1-----1-----1-3-1--------------| 
------1-----------------1-----------------1-----1-----1-3-1--------------| 
-------------------------------------------------------------------------| 
-1-3----3---3---3--1-3-----3---3---3--1-3---3-3---3-3-------3--3--3--1-3-| 


GTR 
--------------------------------------------------------------------------| 
--------------------------------------------------------------------------| 
--------------------------------------------------------------------------| 
--------------------------------------------------------------------------| 
--------------------------------------------------------------------------| 
-1-3-4--3---3---3--1-3--4--3---3---3--1-3-4-3-3-4-3-3-4/6-4--3--3--3--1-3-| 







0:34 

----------------------------------------------| 
----------------------------------------------| 
--------7---6------------9------10----9-------| 
--------7---7-----------10------10---10-------| 
-7-------------7-5-7/10-----------------------| 
-5--------------------------------------8-5---| 
               * *                      * * 


-----------------------------------------------------------| 
-----------------------------------------------------------| 
--------7---6------------9------10----9---5----------------| 
--------7---7-----------10------10---10---7--6-------6-5-4-| 
-7-------------7-5-7/10----------------------4-------4-3-2-| 
-5---------------------------------------------------------| 
               * *                  




0:48 

                _____ 
---)-----------/     \----/\--------------------------| 
-14----------13-14-13---131413-15~----/15-13----------| 
-14----12~~~----------15-----------12--------15~~~----| 
------------------------------------------------------| 
------------------------------------------------------| 
------------------------------------------------------| 


0:54 

  ___________~~~             ~~~                        _____ 
--)--|---|---|---15--15------)-------------------------/     \------------| 
18--18--18--18-----18--18-18----18-15--15-15-13---13-13-14-13----13-15----| 
-------------------------------------17--------15-------------15------15~\| 
--------------------------------------------------------------------------| 
--------------------------------------------------------------------------| 
--------------------------------------------------------------------------| 





GTL 
--------------------------------------------------------------------| 
-------------------------------------------------------^------------| 
------1-----------------1-----------------1-----1-----1-3-1---------| 
------1-----------------1-----------------1-----1-----1-3-1---------| 
--------------------------------------------------------------------| 
--------3---3---3--1-3-----3---3---3--1-3---3-3---3-3-------3--3--3-| 


GTR 
---------------------------------------------------------------------| 
---------------------------------------------------------------------| 
---------------------------------------------------------------------| 
---------------------------------------------------------------------| 
---------------------------------------------------------------------| 
-----4--3---3---3--1-3--4--3---3---3--1-3-4-3-3-4-3-3-4/6-4--3--3--3-| 


GTL 
--------------------------------------------------------------------| 
-------------------------------------------------------^------------| 
------1-----------------1-----------------1-----1-----1-3-1---------| 
------1-----------------1-----------------1-----1-----1-3-1---------| 
--------------------------------------------------------------------| 
-1-3----3---3---3--1-3-----3---3---3--1-3---3-3---3-3-------3--3--3-| 


GTR 
---------------------------------------------------------------------| 
---------------------------------------------------------------------| 
---------------------------------------------------------------------| 
---------------------------------------------------------------------| 
---------------------------------------------------------------------| 
-1-3-4--3---3---3--1-3--4--3---3---3--1-3-4-3-3-4-3-3-4/6-4--3--3--3-| 




GTL 
--------------------------------------------------------------------| 
-------------------------------------------------------^------------| 
------1-----------------1-----------------1-----1-----1-3-1---------| 
------1-----------------1-----------------1-----1-----1-3-1---------| 
--------------------------------------------------------------------| 
-1-3----3---3---3--1-3-----3---3---3--1-3---3-3---3-3-------3--3--3-| 


GTR 
---------------------------------------------------------------------| 
---------------------------------------------------------------------| 
---------------------------------------------------------------------| 
---------------------------------------------------------------------| 
---------------------------------------------------------------------| 
-1-3-4--3---3---3--1-3--4--3---3---3--1-3-4-3-3-4-3-3-4/6-4--3--3--3-| 




GTL 
------------------------------------------------------------------------| 
-------------------------------------------------------^----------------| 
------1-----------------1-----------------1-----1-----1-3-1-------------| 
------1-----------------1-----------------1-----1-----1-3-1-------------| 
------------------------------------------------------------------------| 
-1-3----3---3---3--1-3-----3---3---3--1-3---3-3---3-3-------3--3--3--1-3| 


GTR 
-------------------------------------------------------------------------| 
-------------------------------------------------------------------------| 
-------------------------------------------------------------------------| 
-------------------------------------------------------------------------| 
-------------------------------------------------------------------------| 
-1-3-4--3---3---3--1-3--4--3---3---3--1-3-4-3-3-4-3-3-4/6-4--3--3--3--1-3| 








----------------------------------------------| 
----------------------------------------------| 
--------7---6------------9------10----9-------| 
--------7---7-----------10------10---10-------| 
-7-------------7-5-7/10-----------------------| 
-5---------------------------------------8-5--| 
               * *                       * * 


-----------------------------------------------------------| 
-----------------------------------------------------------| 
--------7---6------------9------10----9---5----------------| 
--------7---7-----------10------10---10---7--6-------6-5-4-| 
-7-------------7-5-7/10----------------------4-------4-3-2-| 
-5---55----------------------------------------------------| 
     **        * *                  




1:36 


----------------------------------------------------| 
----------------------------------------------------| 
-------------6--------------------------------------| 
-----4---5---4---5--4-------------------------------| 
-4---2---3-------3--2--------5-----------------5-7--| 
-2---------------------2-2-2-3---2-2-2-2-2-2-2-3-5--| 
                       * * *     * * * * * * * 

----------------------------------------------------| 
----------------------------------------------------| 
-------------6--------------------------------------| 
-----4---5---4---5--4-------------------------------| 
-4---2---3-------3--2--------5-----------------5-7--| 
-2---------------------2-2-2-3---2-2-2-2-2-2-2-3-5--| 
                       * * *     * * * * * * * 

----------------------------------------------------| 
----------------------------------------------------| 
-------------6--------------------------------------| 
-----4---5---4---5--4-------------------------------| 
-4---2---3-------3--2--------5-----------------5-7--| 
-2---------------------2-2-2-3---2-2-2-2-2-2-2-3-5--| 
                       * * *     * * * * * * * 

----------------------------------------------------| 
----------------------------------------------------| 
-------------6--------------------------------------| 
-----4---5---4---5--4-------------------------------| 
-4---2---3-------3--2--------5-----------------5-7--| 
-2---------------------2-2-2-3---2-2-2-2-2-2-2-3-5--| 
                       * * *     * * * * * * * 






1:58 

--------------------------------------------------------| 
--------------------------------------------------------| 
--------------------------------------------------------| 
-------------------------9-9---9-9---9-9-9-9-9-9-9-11---| 
-6---9---6---9---6---9---7-7---7-7---7-7-7-7-7-7-7-9----| 
-4---7---4---7---4---7----------------------------------| 


------------------------------------------------------------| 
------------------------------------------------------------| 
------------------------------------------------------------| 
------------------------------------------------------------| 
-6---9---6---9---6---9--11--11-11-11---11-11-11-9-9---9-11--| 
-4---7---4---7---4---7---9---9--9--9----9--9--9-7-7---7-9---| 



--------------------------------------------------------| 
--------------------------------------------------------| 
--------------------------------------------------------| 
-------------------------9-9---9-9---9-9-9-9-9-9-9-11---| 
-6---9---6---9---6---9---7-7---7-7---7-7-7-7-7-7-7-9----| 
-4---7---4---7---4---7----------------------------------| 


------------------------------------------------------------| 
------------------------------------------------------------| 
------------------------------------------------------------| 
------------------------------------------------------------| 
-6---9---6---9---6---9--11--11-11-11---11-11-11-9-9---9-8---| 
-4---7---4---7---4---7---9---9--9--9----9--9--9-7-7---7-6---| 






2:20 


---)~~~~~-------8--8----------)~~~-----)--(--------------------| 
-10--------8/10---10~~~~----10--------4------------------------| 
-11-------------------------11--------6-----------3------------| 
---------------------------------------------3-5----5~~~~------| 
---------------------------------------------------------------| 
---------------------------------------------------------------| 



2:32 

-----------------------------------______------____------___--------------| 
----------------------------------/      \----/    \----/   \-----6-------| 
-------------------------3---5---5-6-5-------5-6-5-----5-6-5----5-7-------| 
-----------------3---5-----5---5-------8-7-5-------8-5-------8------8-5~~-| 
---------3---3-5---5---5--------------------------------------------------| 
-3-3-6-3---6--------------------------------------------------------------| 



2:38 

-------_--------------------------------___------------------------| 
--)---|-^-------------)^---------------/   \-----------------------| 
-9----9--7---9-9~~~~-9--7-5-7-----5---5-6-5---5-7------------------| 
------------------------------8-5---8-------8-----8-------8--------| 
----------------------------------------------------10-10---10~~~--| 
-------------------------------------------------------------------| 







GTL 
--------------------------------------------------------------------| 
-------------------------------------------------------^------------| 
------1-----------------1-----------------1-----1-----1-3-1---------| 
------1-----------------1-----------------1-----1-----1-3-1---------| 
--------------------------------------------------------------------| 
--------3---3---3--1-3-----3---3---3--1-3---3-3---3-3-------3--3--3-| 


GTR 
---------------------------------------------------------------------| 
---------------------------------------------------------------------| 
---------------------------------------------------------------------| 
---------------------------------------------------------------------| 
---------------------------------------------------------------------| 
-----4--3---3---3--1-3--4--3---3---3--1-3-4-3-3-4-3-3-4/6-4--3--3--3-| 


GTL 
--------------------------------------------------------------------| 
-------------------------------------------------------^------------| 
------1-----------------1-----------------1-----1-----1-3-1---------| 
------1-----------------1-----------------1-----1-----1-3-1---------| 
--------------------------------------------------------------------| 
-1-3----3---3---3--1-3-----3---3---3--1-3---3-3---3-3-------3--3--3-| 


GTR 
---------------------------------------------------------------------| 
---------------------------------------------------------------------| 
---------------------------------------------------------------------| 
---------------------------------------------------------------------| 
---------------------------------------------------------------------| 
-1-3-4--3---3---3--1-3--4--3---3---3--1-3-4-3-3-4-3-3-4/6-4--3--3--3-| 




GTL 
--------------------------------------------------------------------| 
-------------------------------------------------------^------------| 
------1-----------------1-----------------1-----1-----1-3-1---------| 
------1-----------------1-----------------1-----1-----1-3-1---------| 
--------------------------------------------------------------------| 
-1-3----3---3---3--1-3-----3---3---3--1-3---3-3---3-3-------3--3--3-| 


GTR 
---------------------------------------------------------------------| 
---------------------------------------------------------------------| 
---------------------------------------------------------------------| 
---------------------------------------------------------------------| 
---------------------------------------------------------------------| 
-1-3-4--3---3---3--1-3--4--3---3---3--1-3-4-3-3-4-3-3-4/6-4--3--3--3-| 




GTL 
--------------------------------------------------------------------| 
-------------------------------------------------------^------------| 
------1-----------------1-----------------1-----1-----1-3-1---------| 
------1-----------------1-----------------1-----1-----1-3-1---------| 
--------------------------------------------------------------------| 
-1-3----3---3---3--1-3-----3---3---3--1-3---3-3---3-3-------3--3--3-| 


GTR 
---------------------------------------------------------------------| 
---------------------------------------------------------------------| 
---------------------------------------------------------------------| 
---------------------------------------------------------------------| 
---------------------------------------------------------------------| 
-1-3-4--3---3---3--1-3--4--3---3---3--1-3-4-3-3-4-3-3-4/6-4--3--3--3-| 




GTL 
-------------------------------------------------------------------------| 
-------------------------------------------------------^-----------------| 
------1-----------------1-----------------1-----1-----1-3-1--------------| 
------1-----------------1-----------------1-----1-----1-3-1--------------| 
-------------------------------------------------------------------------| 
-1-3----3---3---3--1-3-----3---3---3--1-3---3-3---3-3-------3--3--3--1-3-| 


GTR 
--------------------------------------------------------------------------| 
--------------------------------------------------------------------------| 
--------------------------------------------------------------------------| 
--------------------------------------------------------------------------| 
--------------------------------------------------------------------------| 
-1-3-4--3---3---3--1-3--4--3---3---3--1-3-4-3-3-4-3-3-4/6-4--3--3--3--1-3-| 





----------------------------------------------| 
----------------------------------------------| 
--------7---6------------9------10----9-------| 
--------7---7-----------10------10---10-------| 
-7-------------7-5-7/10-----------------------| 
-5---55---------------------------------8-5---| 
               * *                      * * 


-----------------------------------------------------------| 
-----------------------------------------------------------| 
--------7---6------------9------10----9--5-----------------| 
--------7---7-----------10------10---10--7---6-------6-5-4-| 
-7-------------7-5-7/10----------------------4-------4-3-2-| 
-5---------------------------------------------------------| 
               * *                  



----------------------------------------------------| 
----------------------------------------------------| 
-------------6--------------------------------------| 
-----4---5---4---5--4-------------------------------| 
-4---2---3-------3--2--------5-----------------5-7--| 
-2---------------------2-2-2-3---2-2-2-2-2-2-2-3-5--| 
                       * * *     * * * * * * * 

----------------------------------------------------| 
----------------------------------------------------| 
-------------6--------------------------------------| 
-----4---5---4---5--4-------------------------------| 
-4---2---3-------3--2--------5-----------------5-7--| 
-2---------------------2-2-2-3---2-2-2-2-2-2-2-3-5--| 
                       * * *     * * * * * * * 

----------------------------------------------------| 
----------------------------------------------------| 
-------------6--------------------------------------| 
-----4---5---4---5--4-------------------------------| 
-4---2---3-------3--2--------5-----------------5-7--| 
-2---------------------2-2-2-3---2-2-2-2-2-2-2-3-5--| 
                       * * *     * * * * * * * 

-----------------------| 
-----------------------| 
-------------6---------| 
-----4---5---4---5--4--| 
-4---2---3-------3--2--| 
-2---------------------| 
	  

Search Paypal
auto scroll beats size up size down change color columns
tab show chords e-chords YouTube Clip e-chords hide all tabs e-chords go to top tab