Andrés Calamaro

home > Andrés Calamaro

El salmon Keyboard

Andrés Calamaro

Difficulty: nolevelnolevel

by fernsantana

tuner correct add songbook print version text version save to e-mail
chordsukulelecavacokeyboardtabbassdrumsharmonicsflute Guitar Pro
chords

El salmon

  		Intro 
|----------------|----------------|----------------|----------------| 
|----------------|----------------|----------------|----------------| 
|----------------|----------------|----------------|----------------| 
|5---5---3-4-5---|5-/-17------5---|5---5---5-------|--------3-4-5---| 

|----------------|----------------|----------------|----------------| 
|----------------|----------------|----------------|5---------------| 
|----------------|----------------|----------------|----------------| 
|5---5---3-4-5---|5-/-17------5---|5---5---3-4-5---|--3-3-3-3-3-3-3-| 

Quiero arreglar... 
|----------------|----------------|----------------|----------------| 
|----------------|----------------|----------------|----6---9---6---| 
|3-3-3-3-3-3-3-3-|----------------|----------------|7-7---7---7---7-| 
|----------------|3-3-3-3-3-3-0-3-|5-5-5-5-5-5-5-5-|----------------| 

|----------------|----------------|----------------|----------------| 
|----------------|----------------|----------------|----------------| 
|8-8-8-8-8-8-8-8-|----------------|3-3-3-3-3-3-3-3-|----------------| 
|----------------|3-3-3-3-3-3-3-3-|----------------|0-0-0-0-3-3-3-3-| 

|----------------|----------------|----------------|----------------| 
|----------------|----------------|----------------|----6---9---6---| 
|3-3-3-3-3-3-3-3-|----------------|----------------|7-7---7---7---7-| 
|----------------|3-3-3-3-3-3-0-3-|5-5-5-5-5-5-5-5-|----------------| 

|----------------|----------------|----------------|----------------| 
|----------------|----------------|----------------|----------------| 
|8-8-8-8-8-8-8-8-|----------------|3-3-3-3-3-3-3-3-|----------------| 
|----------------|3-3-3-3-3-3-3-3-|----------------|0-0-0-0-0-0-0-0-| 

Se ve que para algo... 
|----------------|----------------|----------------|----------------| 
|----------------|----------------|----------------|----------------| 
|----------------|----------------|----------------|----------------| 
|5---5---3-4-5---|---/17------5---|5---5---3-4-5---|------3-3-4-5---| 

|----------------|----------------|----------------|----------------| 
|----------------|----------------|-------/5-6-7---|----------------| 
|----------------|----------------|----------------|----------------| 
|5---5---5-/-17--|----5---3-4-5---|5---5-----------|--3-3-3-3-3-3-3-| 

No pienso estar enero... 
|----------------|----------------|----------------|----------------| 
|----------------|----------------|----------------|----6---9---6---| 
|3-3-3-3-3-3-3-3-|----------------|----------------|7-7---7---7---7-| 
|----------------|3-3-3-3-3-3-0-3-|5-5-5-5-5-5-5-5-|----------------| 

|----------------|----------------|----------------|----------------| 
|----------------|----------------|----------------|----------------| 
|8-8-8-8-8-8-8-8-|----------------|3-3-3-3-3-3-3-3-|----------------| 
|----------------|3-3-3-3-3-3-3-3-|----------------|0-0-0-0-3-3-3-3-| 

|----------------|----------------|----------------|----------------| 
|----------------|----------------|----------------|----6---6---9---| 
|3-3-3-3-3-3-3-3-|----------------|----------------|7-7---7---7---7-| 
|----------------|3-3-3-3-3-3-0-3-|5-5-5-5-5-5-5-5-|----------------| 

|----------------|----------------|----------------|----------------| 
|----------------|----------------|----------------|----------------| 
|8-8-8-8-8-8-8-8-|------------3-5-|7-7-5-5-3-3-3-3-|----------------| 
|----------------|3-3-3-3-3-3-----|----------------|0-0-0-0-0-0-0-0-| 

Revisenme a mi... 
|----------------|----------------|----------------|----------------| 
|----------------|----------------|----------------|----------------| 
|----------------|----------------|----------------|----------------| 
|5---5---3-4-5---|----17--/---5---|5---5---3-4-5---|------3-3-4-5---| 
  
|----------------|----------------|----------------|----------------| 
|----------------|----------------|----------------|----------------| 
|----------------|----------------|----------------|----------------| 
|5-/-17--5-/-17--|5---5---3-3-3-4-|5---5---3-4-5---|--3-3-3-3-3-3-3-| 

Siempre segui... 
|----------------|----------------|----------------|----------------| 
|----------------|----------------|----------------|----6---9---6---| 
|3-3-3-3-3-3-3-3-|----------------|----------------|7-7---7---7---7-| 
|----------------|3-3-3-3-3-3-0-3-|5-5-5-5-5-5-5-5-|----------------| 

|----------------|----------------|----------------|----------------| 
|----------------|----------------|----------------|----------------| 
|8-8-8-8-8-8-8-8-|----------------|3-3-3-3-3-3-3-3-|----------------| 
|----------------|3-3-3-3-3-3-3-3-|----------------|0-0-0-0-3-3-3-3-| 

|----------------|----------------|----------------|----------------| 
|----------------|----------------|----------------|6---9---6---9---| 
|3-3-3-3-3-3-3-3-|----------------|----------------|--7---7---7---7-| 
|----------------|3-3-3-3-3-3-0-3-|5-5-5-5-5-5-5-5-|----------------| 

|----------------|----------------|----------------|----------------| 
|----------------|----------------|----------------|----------------| 
|8-8-8-8-8-7-5-3-|----------------|3-3-3-3-3-3-3-3-|----------------| 
|----------------|3-3-3-3-3-3-3-3-|----------------|0-0-0-0-3-3-3-3-| 

Dame, dame... 
|----------------|----------------|----------------|----------------| 
|----------------|----------------|----------------|9-----6---------| 
|----------------|----------------|--------------7-|---7----7-------| 
|----------------|----------------|5-5-5-5-5-5-5---|----------------| 

|----------------|----------------|----------------|----------------| 
|----------------|----------------|----------------|----------------| 
|8-8-8-8-8-8-8-8-|----------------|----------------|----------------| 
|----------------|3-3-3-3-3-3-3-3-|5---5---3-4-5---|5-/-17------5---| 

|----------------|----------------|----------------|----------------| 
|----------------|----------------|----------------|----------------| 
|----------------|----------------|----------------|----------------| 
|5---5---3-4-5---|------3-3-4-5---|5-/-17--5-/-17--|5---5---3-3-3-4-| 

|----------------|----------------| 
|----------------|----------------| 
|----------------|----------------| 
|5---5---3-4-5---|----3-3-3-5-5---|
	  

Search Paypal
auto scroll beats size up size down change color columns
tab show chords e-chords YouTube Clip e-chords hide all tabs e-chords go to top tab