Alejandro Filio

home > Alejandro Filio

De Flor Y De Flores Keyboard

Alejandro Filio

Difficulty: nolevelnolevel

by vandcatarino

tuner correct add songbook print version text version save to e-mail
chordsukulelecavacokeyboardtabbassdrumsharmonicsflute Guitar Pro
chords

De Flor Y De Flores

(Alejandro Filio)

  		Bueno, decidí mandar esta transcripción porque la que ya  
estaba no me gustó y no te enseñaba como posicionarte 
para hacer bien el Intro. Ojalá que le sirva, dudas o comentarios 
a mi mail. 

Para Andrea. 
    
INTRO - Las notas simples del intro son: 

C - G - Em - Am - Am/G - F - G - C - C/G - Am - F - G y C 

Para que se oiga igual, hay que seguir las notas con los arreglos que muestro 
en el siguiente TAB; los cambios son relativamente rápidos sobre en todo en la 
parte de C - C/G - Am. El intro sirve para los versos al igual que para el final. 
                                                                   
      
                                                            
      -----------------Todo esto es con la forma de C---------------------- 
         
e-----0-----------0-------------------------------3--------1--------0------------| 
B--------3-----------------1-------------1-----------------------------3---------| 
G-----------------------0-------------0--------------0--------0------------------| 
D--------------------2-------------2---------------------------------------------| 
A-----------------3-------------3-----------------3--------3--------3------------| 
E--------------------------------------------------------------------------------| 


              G                              Em             Am           Am/G  
  
e-----------------------------3-------1------0------------------------------------------| 
B----3------3---------3------------------------------3------1-------1----1--------1-----| 
G---------0---------0------------0--------------0-------0---------2-------------0-------| 
D-------0---------0---------------------------------------------2-------------2---------| 
A-----------------------------------------------------------0---------------------------| 
E----3---------3--------------3-------3------0-------0-------------------3--------------| 



    F             G                  C   C/G   Am               F           G   

e------------1----0------------------0---------------------------------1----0-----------| 
B----------------------3---1--0-----------3----1----------1-----------------------3-----| 
G---------2--------------------------------------------2-------------2---------0--------| 
D------3--------------------------------------------2-------------3---------------------| 
A------------------------------------3----2----0----------------------------------------| 
E---1-------------3---------------------------------------------1-----------3-----------| 


   C     C/G   Am 		   F	           G                          C 

e--3------3-----3slide5----------------------1-----0--------------------------1---------| 
B-------------------------0---------------------------------3-----1-----0---------------| 
G-----0----------------------0------------2------------0-------0-----0------------------| 
D--------------------------------------3------------------------------------------2h0h2-| 
A--3------2-----0-------------------------------------------------------------3---------| 
E----------------------------------1---------------3------------------------------------| 



Versos: (Recuerda seguir la forma del intro) 


De flor tenía,   la sombra sobre la camisa 
Pintada de flor la sonrisa 
Girando la flor desde el centro 
Brillando de fuera hacia dentro 


De flor un día,  con petalos hizo su reino 
Con flor  sobre flor hasta el cielo 
Y se lo llevó tallo adentro 
Bordando de flor el contento 

              F       Am           G 
Dicen que las floreeeees,  son las armas nobles 

F          G          C  C/G  Am  Am/G 
Que jamas procuran la batalla 

F            G          C  C/G  Am  Am/G 
Pero cuando giran algo pasa 

F           G              C  C/G  Am  Am/G 
Pueden mutilar con solo un giro 

F               G              C    
Si algo se interpone en su camino 

(Intro) 


De flor la suerte,   llego a su jardín una guerra 
Y asi despertó de la tierra 
La rabia de flor al combate 
Girando su flor por delante 


Y fue la historia, narrada por flores silvestres 
Que vino a la flor una peste 
La que aniquilo tanto sueño 
De flor y de flores su empeño 


Dicen que las flores... 


Termina repitiendo el Intro
	  

Full key step upFull key step up
Half key step upHalf key step up
Half key step downHalf key step down
Full key step downFull key step down
Search Paypal
auto scroll beats size up size down change color columns
tab show chords e-chords YouTube Clip e-chords hide all tabs e-chords go to top tab