Misc Computer Games

home > Misc Computer Game...

Pokemon Games - Littleroot Town Ukulele Harmonica Tab

Misc Computer Games

Difficulty: nolevelnolevel

by LINEKERS

tuner correct add songbook print version text version save to e-mail
chordsukulelecavacokeyboardtabbassdrumsharmonicsflute Guitar Pro
chords

Pokemon Games - Littleroot Town Ukulele

	  
A|-------0-0-0-3-5-0--0-4-5-7-5--0---------0-5-------------------| 
E|---1-3--3-3----------------------3-1-0-1-----------------------| 
C|-0-------------------------------------------------------------| 
G|------------3--------------------------------------------------| 

A|-------3-----0---0---------------------------------------------| 
E|---0-1---------1---3-1---0--0--1-3-----------------------------| 
C|-2-------------------------2-----------------------------------| 
G|---------3-3---------------------------------------------------| 

A|---3--0--0-0—-5/3-5-0----0-4-5-7-8-0---------0-4/5-------------| 
E|------3-3-3------------3-------------3-1-0-1-------------------| 
C|-0-------------------------------------------------------------| 
G|----3--------3-------------------------------------------------| 

A|-------3---0---5-0-0-------------0--3-4-0----------------------| 
E|---0-1-------1-------3-1--0-1-3-----------3-1-1----------------| 
C|-2-------------------------------------------------------------| 
G|--------3-3-----------------------3----3-----------------------| 

A|------0----------------0--3-0-4-7-10-8-7-8-5-8-12-10-----------| 
E|-0---1--3--1--1-0-0-1-3----------------------------------------| 
C|---2--------2--------------------------------------------------| 
G|-------------------------3-------------------------------------| 

A|-7/8/7-5-8-7-7-8-10--------------------------------------------| 
E|---------------------------------------------------------------| 
C|---------------------------------------------------------------| 
G|---------------------------------------------------------------| 

  

************************************ 

| /  Slide up 
| —  

************************************ 
	  

Search Paypal
auto scroll beats size up size down change color
tab show chords e-chords YouTube Clip e-chords hide all tabs e-chords go to top tab