Weezer

home > Weezer

Undone - The Sweater Song Drum Tab

Weezer

Difficulty: nolevelnolevel

tuner correct add songbook print version text version save to e-mail
chordsukulelecavacokeyboardtabbassdrummharmonicsflute Guitar Pro
chords

Undone - The Sweater Song

  		
Intro-
Crsh.-X---------------------------- <---
Hihat---x-x-x-x-x-x-x-x-x-x-x-x-x-x <---Heres the beat you need to know. 
S---------1-------1-------1-------1 <---
B-----1-------1-------1-------1---- <---(The hi hat is in eigth notes)

Verse-Start this is soon as intro stops (Comes in on beat 3)

C.X-------------------------------------
Hi-----x-x-x-x-x-x-x-x-x-x-x-x-x-x-x-x-x
S.---------1-------1-------1-------1-----
B.1----1-------1-------1-------1---------

Chorus-Change at-(If you want, to destroy, my sweater)Not the real way but it sounds cool.
Cr.------------------------X---------/-------------------------X------------- Repeat watch me unravel
Hi-X-X-X-X-X-X-X-X-X-X-X-X-----------/-X-X-X-X-X-X-X-X-X-X-X-X-----X-X-X-X-X
S.-----1---------2-------1---33-3--3-/-----1---------1-------1-------2-----2-
B.-1-------2-2-----2-2-33--2---3-33--/-1-------2-2-----2-2-----2---2---2-2---

Verse 2 is the same as verse 1.

Chorus 2 is the same (Use ride if you want instead of hi-hat)

Guitar Solo thingy-
Cr----------2-2-2-2-2-2-2-2-2-2-2-33-/3333333333333333333333333
S.-----3--------1-------1-------1----/----1-------1-------1----
B.----------1-------1-------1--------/1-------1-------1--------and so on.
FT-3333-333--------------------------/-------------------------

Loud Chorus Starts-Same as Guitar Solo.
 
Other Part
Hh-X-X----X-X-X---X-X-X---X-X-----
Cr-----X--------X-------X------X--
S.-----2--------2-------2------2--
B.-2-2----33333---333-2---1--1---2

The File on Snare then back to second part of Guitar Solo.
Hh-X-X-X-X-X-X-----
S.-----2-2--3--3-33
B.-2-2----3---3----

Stop and let guitar fade out




Contribuição: Cristina ([email protected])
	  

Search Paypal
auto scroll beats size up size down change color
tab show chords e-chords YouTube Clip e-chords hide all tabs e-chords go to top tab