TV Themes

Adam`s Family Theme Song

TV Themes

drums Beginner beginner

by  SKIPPER3

save to print version add songbook text version e-mail correct tuner
chordsukulelecavacokeyboardtabbassdrumsharmonicaflute Guitar Pro
close

there isn't a video lesson for this song

chords

Adam`s Family Theme Song

	  		x - Dead Note 

|--------xx---------xx-------------------------xx----------| 
|--------xx---------xx-------------------------xx----------| 
|--------xx-------0-xx-------0-------0---------xx----------| 
|--0-2-3-xx-0-2-4---xx-0-2-4---0-2-4-----0-2-3-xx----------| 
|3-------xx---------xx-----------------3-------xx----------| 
|--------xx---------xx-------------------------xx----------| 

|----------------------------------------------------------| 
|----------------------------------------------------------| 
|----2-------0------0--------------2-------0---------------| 
|--3---3-0------3-2---2-----3----3---3-0-----3-2---0-2-3---| 
|3---------1------------3-0----3---------1-------3---------| 
|----------------------------------------------------------| 

|--------xx---------xx-------------------------xx----------| 
|--------xx---------xx-------------------------xx----------| 
|--------xx-------0-xx-------0-------0---------xx----------| 
|--0-2-3-xx-0-2-4---xx-0-2-4---0-2-4-----0-2-3-xx----------| 
|3-------xx---------xx-----------------3-------xx----------| 
|--------xx---------xx-------------------------xx----------| 

		  

See also:

drums TV Themes - Adam`s Family Theme Song
e-chords

Other versions:

drums TV Themes - Adam`s Family Theme Song
auto scroll beats size up size down change color
tab show chords e-chords YouTube Clip e-chords hide all tabs e-chords go to top tab

share