Sex Pistols

home > Sex Pistols

Anarchy In The UK Drum Tab

Sex Pistols

Difficulty: ExpertExpert

tuner correct add songbook print version text version save to e-mail
chordsukulelecavacokeyboardtabbassdrummharmonicsflute Guitar Pro
chords

Anarchy In The UK

Year: 1979 - Album: Never Trust a Hippy

  		
Intro:
C |x-x-x-x-x-x-x-x-|x---------------|x-x-x-x-x-x-x-x-|x-------x-------|
S |----------------|--oooooo--------|----------------|----------------|
T1|----------------|--------oooo----|----------------|----------------|
T2|----------------|------------oooo|----------------|--------------oo|
B |o-o-o-o-o-o-o-o-|o---o---o---o---|o-o-o-o-o-o-o-o-|o-------o-------|

  |-------3-X------|
S |----o-o-----o---|----o-oooooo----|
T2|o-o-o-o-o-o-o-oo|o-o-o-------oooo|
B |o---o---o---o---|o---o---o---o---|

Verse:             |------6-X-------|
C |x---------------|----------------|----------------|
Hh|--x-X-x-X-x-X-x-|X-x-X-x-X-x-X-x-|X-x-X-----------|
S |----o-------o---|----o-------o---|----o-oooooo----|
T2|----------------|----------------|------------oooo|
B |o---o---o---o---|o---o---o---o---|o---o---o---o---|

Chorus:
  |---------------2-X---------------|
C |x---------------|----------------|x---------------|--------x---x---|
Rd|----x---x---x---|x---x---x-------|----x---x---x---|x---x-----------|
S |----o-------o---|----o-----oooooo|----o-------o---|----o-----------|
B |o-o---o-o-o---o-|o-o---o-o-------|o-o---o-o-o---o-|o-o-----o---o---|

C |x---------------|----------------|
Rd|----x---x---x---|x---x-----------|
S |----o-------o---|----o-oooooo----|
T2|----------------|------------oooo|
B |o-o---o-o-o---o-|o-o-----o---o---|

Repeat Verse:

Repeat Chorus

Guitar Solo #1:
  |------7-X-------|------2-X-------|
C |x---------------|x-----x---------|x-----x-----x---|x-----x---------|
Rd|----x---x---x---|----------------|----------------|----------------|
S |----o-------o---|------------f---|----------------|----------oooooo|
B |o-o---o-o-o---o-|o-o-o-o-o-o-o-o-|o-o-o-o-o-o-o-o-|o-o-o-o---------|

Verse:                              |---------------2-X---------------|
C |x---------------|----------------|----------------|----------------|
Hh|--x-X-x-X-x-X-x-|X-x-X-x-X-x---x-|X-x-X-x-X-x-X-x-|X-x-X-x-X-x---x-|
S |----o-------o---|----o------ooo--|----o-------o---|----o------ooo--|
B |o---o---o---o---|o---o---o---o---|o---o---o---o---|o---o---o---o---|

Hh|X-x-X-x-X-x-X-x-|X-x-X-----------|
S |----o-------o---|----o-oooooo----|
T2|----------------|------------oooo|
B |o---o---o---o---|o---o---o---o---|

Chorus:
  |---------------2-X---------------|
C |x---x-----------|----------------|x---------------|--------x---x---|
Rd|--------x---x---|x---x---x-------|----x---x---x---|x---x-----------|
S |----o-------o---|----o-----oooooo|----o-------o---|----o-----------|
B |o-o---o-o-o---o-|o-o---o-o-------|o-o---o-o-o---o-|o-o-----o---o---|

C |x---------------|x---------------|
Rd|----x---x---x---|----------------|
S |----o-------o---|--oooooo--------|
T1|----------------|--------oooo----|
T2|----------------|------------oooo|
B |o-o---o-o-o---o-|o---o---o---o---|

Guitar Solo #2:                     |---------------2-X---------------|
C |x---------------|--------x---x---|----------------|--------x---x---|
Rd|----x---x---x---|x---x-----------|x---x---x---x---|x---x-----------|
S |----o-------o---|----o-----------|----o-------o---|----o-----------|
B |o-o---o-o-o---o-|o-o-----o---o---|o-o---o-o-o---o-|o-o-----o---o---|

C |----------------|x---------------|
Rd|x---x---x---x---|----------------|
S |----o-------o---|--oooooo--------|
T1|----------------|--------oooo----|
T2|----------------|------------oooo|
B |o-o---o-o-o---o-|o---o---o---o---|

Verse:
--|---------------3-X---------------|
C |x---------------|----------------|x---------------|----------------|
Hh|--x-X-x-X-x-X-x-|X-x-X-x-X-x-X-x-|--x-X-x-X-x-X-x-|X-x-X-----------|
S |----o-------o---|----o-------o---|----o-------o---|----o-oooooo----|
T2|----------------|----------------|----------------|------------oooo|
B |o---o---o---o---|o---o---o---o---|o---o---o---o---|o---o---o---o---|

Chorus:
  |---------------2-X---------------|
C |x---x-----------|----------------|x---x-----------|--------x---x---|
Rd|--------x---x---|x---x---x-------|--------x---x---|x---x-----------|
S |----o-------o---|----o-----oooooo|----o-------o---|----o-----------|
B |o-o---o-o-o---o-|o-o---o-o-------|o-o---o-o-o---o-|o-o-----o---o---|
  __________________________________ _________________________________
                              1,2,3 |                                4|
C |----------------|----------------|x---------------|x---------------|
Rd|x---x---x---x---|x---x-----------|----x---x---x---|----------------|
S |----o-------o---|----o-oooooo----|----o-------o---|----------------|
T2|----------------|------------oooo|----------------|----------------|
B |o-o---o-o-o---o-|o-o-----o---o---|o-o---o-o-o---o-|o---------------|





Contribuição: Cristina ([email protected])
	  

Search Paypal
auto scroll beats size up size down change color
tab show chords e-chords YouTube Clip e-chords hide all tabs e-chords go to top tab