Santana

home > Santana

Hope You're Feeling Better Drum Tab

Santana

Difficulty: nolevelnolevel

by eduardo%5Flyvio

tuner correct add songbook print version text version save to e-mail
chordsukulelecavacokeyboardtabbassdrummharmonicsflute Guitar Pro
chords

Hope You're Feeling Better

Year: 1990 - Album: Abraxas

  		Hi-Hat - x, Cymbal,  - X top line		o, x - Strike             
2nd Tom - 2nd line				0 - Accent 
1st Tom - 3rd line				x - Hi-Hat Open		 
Snare Drum - 4th line				d - Drag/Double Sticking 
Floor Tom - 5th line				O - Rim Shot 
Bass drum - o, Hi-Hat Foot - x, bottom line	c - Cow Bell 
 
{3 bar rest}      {demi-semi quavers}  {Verse}       (Hi-Hat Loose) 
|----|----|----|------------------------|X-x-x-x-x-x-x-x-|x-x-x-x-x-x-x-x-| 
|----|----|----|--------------------oooo|----------------|----------------|                      
|----|----|----|----------------oooo----|----------------|----------------|   
|----|----|----|--------oooooooo--------|----o--o----o--o|----o--o----o--o|       
|----|----|----|------------------------|----------------|----------------|        
|----|----|----|------------------------|o-------o-------|o-------o-------| 
       
|x-x-x-x-x-x-x-x-|x-x-x-x-x-x-x-x-|X-x-x-x-x-x-x-x-|x-x-x-x-x-x-X-X-| 
|----------------|---------------o|----------------|----------------| 
|----------------|--------------o-|----------------|----------------| 
|----o--o----o--o|----o---o--oo---|----o--o----o--o|----o--o---o----| 
|----------------|----------------|----------------|----------------| 
|o-------o-------|o-------o-------|o-------o-------|o-------o-------| 
 
|x-x-x-x-x-x-x-x-|x-x-x-x-x-x-X-X-|x-x-x-x-x-x-x-x-|x-x-x-x-x-x-X-X-| 
|----------------|----------------|----------------|----------------| 
|----------------|----------------|----------------|----------------| 
|----o--o----o--o|----o--o---o----|----o--o----o--o|----o--o---o----| 
|----------------|----------------|----------------|----------------| 
|o-------o-------|o-------o-------|o-------o-------|o-------o-------| 
                                                           {Chorus} 
|x-x-x-x-x-x-x-x-|x-x-x-------X-X-|X---X---X---X---|X---------------| 
|----------------|----------------|----------------|----------------| 
|----------------|---------o------|----------------|----------------| 
|----o--o----o--o|----o--oo--o----|----o--o----o--o|----------------| 
|----------------|----------------|----------------|0-0-0-0-0-0-0-0-| 
|o-------o-------|o-------o-------|o-------o-------|----------------| 
 
|X---X---X---X---|X---------------|X---X---X---X---|X---------------| 
|----------------|----------------|----------------|----------------| 
|----------------|----------------|----------------|----------------| 
|----o--o----o--o|----------------|----o--o----o--o|----------------| 
|----------------|0-0-0-0-0-0-0-0-|----------------|0-0-0-0-0-0-0-0-| 
|o-------o-------|----------------|o-------o-------|----------------| 
{Verse} 
|--x-x-x-x-x-x-x-|x-x-x-x-x-x-X-X-|x-x-x-x-x-x-x-x-|x-x-x-x-x-x-X-X-| 
|----------------|----------------|----------------|----------------| 
|----------------|----------------|----------------|----------------| 
|oo--o--o----o--o|----o--o---o----|----o--o----o--o|----o--o---o----| 
|----------------|----------------|----------------|----------------| 
|--------o-------|o-------o-------|--------o-------|o-------o-------| 
 
|x-x-x-x-x-x-x-x-|x-x-x-x-x-x-X-X-|x-x-x-x-x-x-x-x-|x-x-x-x-x-x-X-X-| 
|----------------|----------------|----------------|----------------| 
|----------------|----------------|----------------|----------------| 
|----o--o----o--o|----o---0--o----|----o--o----o--o|----o--o---o----| 
|----------------|----------------|----------------|----------------| 
|o-------o-------|o--------o------|o-------o-------|o--------o------| 
{Chorus} 
|X---X---X---X---|X---------------|X---X---X---X---|X---------------| 
|----------------|----------------|----------------|----------------| 
|----------------|----------------|----------------|----------------| 
|----o--o----o--o|----------------|----o--o----o--o|----------------| 
|----------------|0-0-0-0-0-0-0-0-|----------------|0-0-0-0-0-0-0-0-| 
|o-------o-------|----------------|o-------o-------|----------------| 
 
|X---X---X---X---|X---------------|X---X---X---X---|X---------------| 
|----------------|----------------|----------------|----------------| 
|----------------|----------------|----------------|----------------| 
|----o--o----o--o|----------------|----o--o----o--o|----------------| 
|----------------|0-0-0-0-0-0-0-0-|----------------|0-0-0-0-0-0-0-0-| 
|o-------o-------|----------------|o-------o-------|----------------| 
{Solo} 
|c---c---c---c---|c---c---c---c---|c---c---c---c---|c---c---c---c---| 
|----------------|----------------|----------------|----------------| 
|----------------|----------------|----------------|----------------| 
|----------------|----------------|----------------|----------------| 
|----------------|----------------|----------------|----------------| 
|o-------o-------|o-------o-------|o-------o-------|o-------o-------| 
		{Snare hits get louder as solo prgresses} 
|c-x-c-x-c-x-c---|c-x-c-x-c-x-c---|c-x-c-x-c-x-c---|c-x-c-x-c-x-c---| 
|----------------|----------------|----------------|----------------| 
|----------------|----------------|----------------|----------------| 
|--------------O-|--------------O-|--------------O-|--------------O-| 
|----------------|----------------|----------------|----------------| 
|o--oo--oo--oo---|o--oo--oo--oo---|o--oo--oo--oo---|o--oo--oo--oo---| 
 
|c-x-c-x-c-x-c---|c-x-c-x-c-x-c---|c-x-c-x-c-x-c---|c-x-c-x-c-x-c---| 
|----------------|----------------|----------------|----------------| 
|----------------|----------------|----------------|----------------| 
|--------------o-|--------------o-|--------------o-|--------------o-| 
|----------------|----------------|----------------|----------------| 
|o--oo--oo--oo---|o--oo--oo--oo---|o--oo--oo--oo---|o--oo--oo--oo--| 
 
|c-x-c-x-c-x-c---|c-x-c-x-c-x-c---|c-x-c-x-c-x-c---|X---------------| 
|----------------|----------------|----------------|----------------| 
|----------------|----------------|----------------|----------------| 
|--------------o-|--------------o-|--------------o-|oooooooooooooooo| 
|----------------|----------------|----------------|oooooooooooooooo| 
|o--oo--oo--oo---|o--oo--oo--oo---|o--oo--oo--oo---|----------------| 
 
|X---X---X---X---|X-----X---X---X-|X---X---X---X---|X-----X---X---X-| 
|----------------|----------------|----------------|----------------| 
|----------------|----------------|----------------|----------------| 
|----o--o----o--o|--o---o---o---o-|----o--o----o--o|--o---o---o---o-| 
|----------------|----------------|----------------|----------------| 
|o-------o-------|o---oo--oo-o-o--|o--------o------|o---oo--oo-o-o--| 
					{Verse} 
|X---------------|X---X---X-------|--x-x-x-x-x-x-x-|x-x-x-x-x-x-X-X-| 
|----------------|----------------|----------------|----------------| 
|----------------|----------------|----------------|----------------| 
|oooooooooooooooo|----o--o--------|d---o--o----o--o|----o--o---o----| 
|oooooooooooooooo|----------------|----------------|----------------| 
|----------------|o-------o-------|o-------o-------|o-------o-------| 
 
|x-x-x-x-x-x-x-x-|x-x-x-x-x-x-X-X-|x-x-x-x-x-x-x-x-|x-x-x-x-x-x-X-X| 
|----------------|----------------|----------------|----------------| 
|----------------|----------------|----------------|--oo------------| 
|----o--o----o--o|----o--o-------|----o--o----o--o|-o--oooooo-0----| 
|----------------|----------------|----------------|----------------| 
|o-------o-------|o-------o-------|o-------o-------|----------o-----| 
					{Chorus} 
|x-x-x-x-x-x-x-x-x-|x-x-x-x-x-x-X-X-|X---X---X---X---|X---------------| 
|----------------|----------------|----------------|----------------| 
|----------------|---------o------|----------------|----------------| 
|----o--o----o--o|----o---o--o----|----o--o----o--o|----------------| 
|----------------|----------------|----------------|0-0-0-0-0-0-0-0-| 
|o-------o-------|o-------o-------|o-------o-------|----------------| 
 
|X---X---X---X---|X---------------|X---X---X---X---|X---------------X| 
|----------------|----------------|----------------|----------------| 
|----------------|----------------|----------------|----------------| 
|-----o--o---o--o|----------------|----o--o----o--o|----------------| 
|----------------|0-0-0-0-0-0-0-0-|----------------|0-0-0-0-0-0-0-0-| 
|o-------o-------|----------------|o--------o------|----------------| 
{Break} 
|--------ccccc---|--------ccccc---|--------ccccc---|----------------| 
|----------------|----------------|----------------|----------------| 
|----------------|----------------|----------------|----------------| 
|----------------|----------------|----------------|oo--oo-ooooooooo| 
|----------------|----------------|----------------|oo--oo-ooooooooo| 
|----------------|----------------|----------------|----------------| 
{Intro} 
|X-x-x-x-x-x-x-x-|x-x-x-x-x-x-x-x-|x-x-x-x-x-x-x-x-|x-x-x-x-x-x-x-x-| 
|----------------|----------------|----------------|-----------oo---| 
|----------------|----------------|----------------|---------o------| 
|----o--o----o--o|----o--o----o--o|----o--o----o--o|----o--oo-o--oo-| 
|----------------|----------------|----------------|----------------| 
|o-------o-------|o--------o------|o-------o-------|o-------o-------| 
{Solo} 
|X-x-x-x-x-x-x-x-x-|x-x-x-x-x-x-x-x-|x-x-x-x-x-x-x-x-|x-x-x-x-x-x-x-x-| 
|----------------|----------------|----------------|---------o-oo---| 
|----------------|----------------|----------------|----o--o--------| 
|--o---o---o---o-|--o---o---o---o-|--o---0---o---o-|--o--oo------ooo| 
|----------------|----------------|----------------|----------------| 
|o---oo--oo-o-o--|o---oo--oo-o-o--|o---oo--oo-o-o--|o---oo----------| 
 
|X-x-x-x-x-x-x-x-|x-x-x-x-x-x-x-x-|x-x-x-x-x-x-x-x-|x-x-x-x---------| 
|----------------|----------------|----------------|--------------oo| 
|----------------|----------------|----------------|----------oo----| 
|--o---o---o---o-|--o---o---o---o-|--o---o---o---o-|--o---o--0------| 
|----------------|----------------|----------------|----------------| 
|o---oo--oo-o-o--|o---oo--oo-o-o--|o---oo--oo-o-o--|o---oo----------| 
{Break}					         {Ending} 
|XX-X-XX---------|----------------|----------------|X-------X-------| 
|----------------|----------------|----------------|----------------| 
|----------------|----------------|----------------|----------------| 
|----------------|----------------|--------------0-|----o--o----o--o| 
|----------------|----------------|----------------|----------------| 
|----------------|----------------|----------------|o-------o-------| 
 
|X-----X---X---X-|----------------|X-----X---X---X-|----------------| 
|----------------|----------------|----------------|----------------| 
|----------------|----------------|----------------|----------------| 
|--o---o---o---o-|----o--o----o--o|--o---o---o---o-|oooooooooooooooo| 
|----------------|----------------|----------------|oooooooooooooooo| 
|o---oo--oo-o-o--|o-------o-------|o---oo--oo-o-o--|----------------| 
 
|X---X---X-------| 
|----------------| 
|----------------| 
|----o-----------| 
|----------------| 
|o-------o-------| 
	  

Search Paypal
auto scroll beats size up size down change color
tab show chords e-chords YouTube Clip e-chords hide all tabs e-chords go to top tab