Metallica

home > Metallica

Orion Drum Tab

Metallica

Difficulty: ExpertExpert

tuner correct add songbook print version text version save to e-mail
chordsukulelecavacokeyboardtabbassdrummharmonicsflute Guitar Pro
chords

Orion

Year: 1986 - Album: Master of Puppets

  		
====This was an extremely tough one but don't worry. I proofread it====
=====about 4 or 5 times. I know this one is extremely close.===========
=====Please send some requests.========================================

SH:1-1-1-1-1-1-1-1-|1-1-1-1-1-1-1-1-|2-2-2-2-2-2-2-2-|2-2-2-2-2-2-2-2-:
SN:----1-------1---|----1-------1---|----2-------2---|----2-------2---:
BA:1-------1-------|1-------1-----1-|2-------2-------|2-------2-----2-:
- play 3x and slowly get louder

CC:----------------|2---------------:
SH:2-2-2-2-2-2-2-2-|----------------:
SN:----2-------2---|--------f---f---:
BA:2-------2-------|2-2-2-2---2---2-:

CC:2---------------|--------------2-|2---------------|--------------2-:
SH:--2-2-2-2-2-2-2-|2-2-2-2-2-2-2---|--2-2-2-2-2-2-2-|2-2-2-2-2-2-2---:
SN:----2-------2---|----2-------2---|----2-------2---|----2---------2-:
BA:2-------2-------|2-------2-----2-|2-------2-------|2-------2---2---:

CC:----------------|----------------|----------------|--2-2-2---2-2-2-:
SH:2-2-2-2-2-2-2-2-|2-2-2-2-2-2-2---|2-2-2-2-2-2-2-2-|----------------:
SN:----2-------2---|----2-------2-22|----2-------2---|f-------f-------:
BA:2-------2-------|2-------2-------|2-------2-------|--2-2-2---2-2-2-:

CC:2---------------|--------------2-|2---------------|--------------2-:
SH:--2-2-2-2-2-2-2-|2-2-2-2-2-2-2---|--2-2-2-2-2-2-2-|2-2-2-2-2-2-2---:
SN:----2-------2---|----2-------2---|----2-------2---|----2-------2---:
B1:2-------2-------|2-------2-----2-|2-------2-------|2------2-2-2--2-:
B2:----------------|----------------|----------------|----------2-----:

CC:2---------------|----------------|----2-----------|--2---2---2---2-:
SH:--2-2-2-2-2-2-2-|2-2-2-2-2-2-2-2-|2-2---2-2-2-2-2-|2---2---2---2---:
SN:----2-------2---|----2-------2---|----2-------2---|--2---2---2---2-:
BA:2-------2-------|2-------2-----2-|2-------2-------|2---2---2---2---:

CC:2---------------|----------------|----2-----------|--------2---2-2-:
SH:--2-2-2-2-2-2-2-|2-2-2-2-2-2-2-2-|2-2---2-2-2-2-2-|2-2-2-2---2-----:
SN:----2-------2---|----2-------2---|----2-------2-2-|--2-2---2---2---:
BA:2-------2-------|2-------2-----2-|2-------2-------|2-----2---2---2-:

CC:2-----------2---|----2---------2-|2---2-------2---|----2-----------:
SH:--2-2-2-2-2---2-|2-2---2-2-2-2---|--2---2-2-2---2-|2-2---2-2-2-2-2-:
SN:----2-------2---|----2-------2---|----2-------2---|----2-------2---:
BA:2-------2-------|2-------2-----2-|2-------2-------|2-------2-------:

1:42
CC:----2-----2-----|
SH:2-2-------------|
BA:2-2-2-----2-----|

CC:2---------------|----2-----2-----:
BA:2---------------|----2-----2-----:
- play 3x

CC:2---------------|----2-----2-----|2---------------|----2-----2-----:
SH:------2-2-2-2-2-|2-2---2-2---2-2-|--2-2-2-2-2-2-2-|2-2---2-2---2-2-:
SN:----------------|----------------|----------------|----2-----2-----:
BA:2-----2-2---2---|2-2-2-----2-----|2-----2-2---2---|2-2-------------:

CC:2---------------|----2-----2-----|2---------------|----2-----2-----:
SH:--2-2-2-2-2-2-2-|2-2---2-2---2-2-|--2-2-2-2-2-2-2-|2-2---2-2---2-2-:
SN:2---------------|----------------|----------------|----2-----2-----:
BA:------2-2---2---|2-2-2-----2-----|2-----2-2---2---|2-2-------------:

CC:2-------------2-|2---------------|----------------|----2-----2-----:
SH:--2-2-2-2-2-2---|--2-2-2-2-2-2-2-|2-2-2-2-2-2-2-2-|2-2---2-2---2-2-:
SN:2---------2-----|----2-------2---|----2-------2---|----2-----2-----:
BA:------2-------2-|2-------2-------|2-------2-----2-|2---------------:

CC:2---------------|----------------|----------------|----2-----2-----:
SH:--2-2-2-2-2-2-2-|2-2-2-2-2-2-2-2-|2-2-2-2-2-2-2-2-|2-2---2-2---2-2-:
SN:2---------2-----|----2-------2---|----2-------2---|----2-----2-----:
BA:------2-------2-|2-------2-------|2-------2-------|2-2-------------:
- play 3x

CC:2-------------2-|2---------------|----------------|----2-----------:
SH:--2-2-2-2-2-2---|--2-2-2-2-2-2-2-|2-2-2-2-2-2-2-2-|2-2---2-2-2-2-2-:
SN:2---------2-----|----2-------2---|----2-------2---|----2-------2-2-:
B1:------2-------2-|2-------2-------|2-------2-----2-|2-----2--2-2----:
B2:----------------|----------------|----------------|----------2-----:

2:48
CC:----------2-2---|2---------------|--------------2-|2---2-2---------:
SH:2-2-2-2-2-----2-|--2-2-2-2-2-2-2-|2-2-2-2-2-2-2---|--2-----2-2-----:
T1:----------------|----------------|----------------|------------2-2-:
SN:----2-2---2-2---|----2-------2---|----2-------2---|----2-2---2-----:
BA:--2-----2-----2-|2-------2-------|2-------2-----2-|2-------2-------:

CC:------------2-2-:
T1:2-2-------------:
T2:----2-2---------:
FT:--------2-------:
SD:----------2-----:
BA:------------2-2-:

CC:2---------------|----------------|----------------|------------2-2-:
SH:--2-2-2-2-2-2-2-|2-2-2-2-2-2-2-2-|2-2-2-2-2-2-2-2-|2-2-2-2-2-2-----:
SN:----2-------2---|----2-------2---|----2-------2---|------2-2---2-2-:
B1:2-------2-------|2-------2-----2-|2-------2-------|2--2-2----2-----:
B2:----------------|----------------|----------------|----2-----------:

CC:2---------------|----------------|----2-----------|----------2-2-2-:
SH:--2-2-2-2-2-2-2-|2-2-2-2-2-2-2-2-|2-2---2-2-2-2-2-|2-2-2-2-2-------:
SN:----2-------2---|----2-------2---|----2-------2-2-|--2-2---2-------:
BA:2-------2-------|2-------2-----2-|2-------2-------|2-----2---2-2-2-:

CC:2---------------|----------------|----2-----------|--------2---2---:
SH:--2-2-2-2-2-2-2-|2-2-2-2-2-2-2-2-|2-2---2-2-2-2-2-|2-2-2-2---------:
SN:----2-------2---|----2-------2---|----2-------2---|----2---2---2---:
BA:2-------2-------|2-------2-----2-|2-------2-------|2-------------2-:

CC:2---------------|----------------|----2-----------|----------------:
SH:--2-2-2-2-2-2-2-|2-2-2-2-2-2-2-2-|2-2---2-2-2-2-2-|2-2-2-2-2-2-2-2-:
SN:----2-------2---|----2-------2---|----2-------2---|----2-------2---:
B1:2-------2-------|2-------2-----2-|2-------2-------|2-----2--2-2--2-:
B2:----------------|----------------|----------------|----------2-----:

CC:2---2-----------|----------------|----2-----------|--------------2-:
SH:------2-2-2-2-2-|2-2-2-2-2-2-2-2-|2-2---2-2-2-2-2-|2-2-2-2-2-2-2---:
SN:----2-------2---|----2-------2---|----2-------2---|----2---------2-:
B1:2-------2-----2-|2-------2-----2-|2-------2-----2-|2-------2--2-2--:
B2:----------------|----------------|----------------|------------2---:

CC:2---------------|----2-----------|----------------|2---------------:
SH:--2-2-2-2-2-2-2-|2-2---2-2-2-2-2-|2-2-2-2-2-2-2-2-|--2-2-2-2-2-2-2-:
SN:2---2-------2---|----2-------2---|----2-------2---|----------------:
B1:--------2-----2-|2-------2-----2-|2-------2-----2-|2-----2-2-----2-:
B2:----------------|----------------|----------------|----------------:

                                     /----play 2x---\
CC:----------------|2---------------|2---------2-2---|2222222222222222:
SH:2-2-2-2-2-2-2-2-|----------------|----------------|----------------:
T1:----------------|------2-2-2-2---|------2-2-------|----------------:
T2:----------------|------2-2-2-2---|------2-2-------|----------------:
BA:2-----2-2-------|2---------------|2---------2-2---|2---------------:

BD:---REST 3X------|

CC:1---------------|----------------|     |------------1---|
BA:1---------------|----------------|     |------------1---|
- play 2x only play the last measure differently

4:13
CC:1-----------|------------|----:
T1:------------|1-1---------|----:
T2:------------|----1-1-2-2-|----:
FT:------------|------------|2-2-:
BA:1-----------|------------|----:

CC:2-----------:
SH:--2-2-2-2-2-:
SN:------2-----:
BA:2---2-----2-:

  /-------play 2x----------\
CC:------------|------2-----|----------2-|2-----------|------------:
SH:2-2-2-2-2-2-|2-2-2---2-2-|2-2-2-222---|--2-2-2-2-2-|2-2-2-------:
SN:------2-----|------2-----|------2--2--|------2-----|------222222:
BA:2---2--2-22-|2---2-----2-|2---2-----2-|2---2-----2-|2---2-------:

CC:2-----------|------------|------2-----|------2-2-2-:
SH:--2-2-2-2-2-|2-2-2-2-2-2-|2-2-2---2-2-|2-2-2-------:
SN:------2-----|------2-----|------2-----|------2-2---:
BA:2---2-----2-|2---2--2-22-|2---2-----2-|2---2-----2-:

CC:2-----------|------------|------------|------------:
SH:--2-2-2-2-2-|2-2-2-2-2-2-|2-----------|------------:
T1:------------|------------|------f-f---|------22----:
T2:------------|------------|----------f-|f-f-----22--:
FT:------------|------------|------------|----f-----22:
SD:------2-----|------2-----|--f-f-------|------------:
BA:2---2-----2-|2---2--2-22-|2-----------|------------:
- play 2x with diff ending
                          CC:------2-----|------------:
                          SH:2-2-2---2-2-|2-2-2-------:
                          T1:------------|-------22---:
                          T2:------------|---------22-:
                          FT:------------|-----------2:
                          SD:------2-----|------2-----:
                          BA:2---2-----2-|2---2-------:

CC:2-----------|------------|------------|------------:
SH:--2-2-2-2-2-|2-2-2-2-2-2-|2-----------|------------:
T1:------------|------------|------f-f---|------22----:
T2:------------|------------|----------f-|f-f-----22--:
FT:------------|------------|------------|----f-----22:
SD:--------2---|------2-----|--f-f-------|------------:
BA:2-----2---2-|2---2--2-22-|2-----------|------------:

CC:2-----------|------------|------2-----|----------2-:
SH:--2-2-2-2-2-|2-2-2-2-2-2-|2-2-2---2-2-|2-2-2-2-2---:
SD:------2-----|------2-----|------2-----|------2--2--:
BA:2---2-----2-|2---2--2-22-|2---2-----2-|2---2-----2-:

CC:2-----------|--------2-2-|2-----------|--------------------2---:
SH:--2-2-2-2-2-|2-2-2-2-----|--2-2-2-2-2-|2---2---2---2-----------:
SD:------2-----|------2-2---|------2-----|------------2-222-2-----:
BA:2---2-----2-|2---2-----2-|2---2-----2-|2-------2-----------2---:

CC:2-----------|--------2-2-|2-----------|------------|2-----------:
SH:--2-2-2-2-2-|2-2-2-2-----|--2-2-------|------------|--2-2-2-2-2-:
T1:------------|------------|------------|f-22--------|------------:
T2:------------|------------|------------|----2222----|------------:
FT:------------|------------|------------|--------2222|------------:
SD:------2-----|------2-----|------f-f-f-|------------|------2-----:
BA:2---2-----2-|2---2---2-2-|2---2-------|------------|2---2-----2-:

CC:------------|------2-----|------------|------2-----:
SH:2-2-2-2-2-2-|2-2-2---2-2-|2-2-2-222-2-|2-2-2---2-2-:
SD:------2-----|------2-----|------2--2--|------2-----:
BA:2---2--2-22-|2---2-----2-|2---2-----2-|2---2-----2-:

CC:--------2-2-|------------|------------|------2-----|------------:
SH:2-2-2-2-----|2-2-2-2-2-2-|2-2-2-222-2-|2-2-2---2-2-|2-2-2-2-2-2-:
SD:------2-2-2-|------2-----|------2--2--|------2-----|------2-2---:
BA:2---2-------|2---2-----2-|2---2-----2-|2---2-----2-|2---2-----2-:

CC:------2-----|------------|------2-----|----------2-|2-----2-2---:
SH:2-2-2---2-2-|2-2-2-2-2-2-|2-2-2---2-2-|2-2-2-------|--2-2-------:
SD:------2-----|------2-----|------2-----|------2222--|------2-2-2-:
BA:2---2-----2-|2---2--2-22-|2---2-----2-|2---2-----2-|2---2-------:

T1:----------2-2-----------:
T2:--------------2-2-------:
FT:------------------2-2-2-:
SD:2--22-2-2---------------:

CC:2-----2-----|------------|------2-----|------2-2-2-:
SH:--2-2---2-2-|2-2-2-2-2-2-|2-2-2---2-2-|2-2-2-------:
SD:------2-----|------2-----|------2-----|------2-2-2-:
BA:2---2-----2-|2---2--2-22-|2---2-----2-|2---2-------:

CC:2-----2-----|------------|------2-2-2-:
SH:--2-2---2-2-|2-2-2-2-2-2-|2-2-2-------:
SD:------2-----|------2-----|------2-2-2-:
BA:2---2-----2-|2---2--2-22-|2---2-------:

CC:2---2-------------------:
T1:--------------------2-2-:
SD:2---2---2---2--22-2-----:

CC:2-----------|------------|------2-----|------------|2-----------:
SH:--2-2-2-2-2-|2-2-2-2-2-2-|2-2-2---2-2-|2-2-2-------|--2-2-2-2-2-:
T1:------------|------------|------------|-------22---|------------:
T2:------------|------------|------------|---------22-|------------:
FT:------------|------------|------------|-----------2|------------:
SD:------2-----|------2-----|------2-----|------2-----|------2-----:
BA:2---2-----2-|2---2--2-22-|2---2-----2-|2---2-------|2---2-----2-:

SH:2-2-2-2-2-2-|2-2-2-2-2-2-|2---2-------------------|----:
T1:------------|------------|--------------------2-2-|2-2-:
T2:------------|------------|------------------------|2-2-:
SD:------2-----|------2-2---|2---2---2---2--22-2-----|----:
BA:2---2--2-22-|2---2-----2-|------------------------|----:

CC:2----2------2---|----------------:
BA:2----2------2---|----------------:
- play 2x with
- diff ending    SN:------------f---:
                 BA:----------2---2-:

CC:2---------------:
SH:--2-2-2-2-2-2-2-:
SD:2---2---2---2---:
BA:--2---2---2-2---:

SH:2-2-2-2-2-2-2-2-:
SD:2---2---2---2---:
BA:2-2---2---2-2---:
- play 15x

CC:2---------------|----------------| 
SH:--2-2-2-2-2-2-2-|2-2-2-2-2-2-2-2-| 
SD:2---2---2---2---|2---2---2---2---| 
BA:----------------|-2-2--2--2-2--2-| 
- play 4x and play the last measure differently each time

with these:
|--------------2-| |----------2-2-2-| |----------------|
|2-2-2-2-2-2-2---| |2-2-2-2-2-------| |2-2-2-2---------|
|2---2---2---2-2-| |2---2---2-2-2-2-| |2---2-2-222-222-|
|-2-2--2--2-2----| |-2-2--2---------| |-2-2------------|

CC:2---------------|----2-----2---2-|2---------------|--------2-------:
SH:--2-2-2-2-2-2-2-|2-2---2-2---2---|--2-2-2-2-2-2-2-|2-2-2-2---------:
SD:2---2---2---2---|2---2---2---2---|2---2---2---2---|2---2---2-2-222-:
B1:2-2-2-2-2-2-2-2-|2-2-2-2-2-2-2-2-|2-2-2-2-2-2-2-2-|2-2-2-2-2-2-2-2-:
B2:-2-2-2-2-2-2-2-2|-2-2-2-2-2-2-2-2|-2-2-2-2-2-2-2-2|-2-2-2-2-2-2-2-2:

CC:2---------------|--------2---2---|2---------------|------------2-2-:
SH:--2-2-2-2-2-2-2-|2-2-2-2---2---2-|--2-2-2-2-2-2-2-|2-2-2-2-2-2-----:
SD:2---2---2---2---|2---2---2---2---|2---2---2---2---|2---2---2---2-2-:
B1:2-2-2-2-2-2-2-2-|2-2-2-2-2-2-2-2-|2-2-2-2-2-2-2-2-|2-2-2-2-2-2-2-2-:
B2:-2-2-2-2-2-2-2-2|-2-2-2-2-2-2-2-2|-2-2-2-2-2-2-2-2|-2-2-2-2-2-2-2-2:

CC:2---------------|--------2---2-2-|2---------------|----------------:
SH:--2-2-2-2-2-2-2-|2-2-2-2---2-----|--2-2-2-2-2-----|----------------:
T1:----------------|----------------|----------------|----2-2-222-222-:
SD:2---2---2---2---|2---2---2---2-2-|2---2---2--22-2-|2222------------:
B1:2-2-2-2-2-2-2-2-|2-2-2-2-2-2-2-2-|2-2-2-2-2-2-2-2-|2-2-2-2-2-2-2-2-:
B2:-2-2-2-2-2-2-2-2|-2-2-2-2-2-2-2-2|-2-2-2-2-2-2-2-2|-2-2-2-2-2-2-2-2:

CC:2---------------|----2---2-------:
SH:--2-2-2-2-2-2-2-|2-2---2---------:
T1:----------------|------------2222:
SD:2---2---2---2---|2---2---2-------:
B1:2-2-2-2-2-2-2-2-|2-2-2-2-2-2-2-2-:
B2:-2-2-2-2-2-2-2-2|-2-2-2-2-2-2-2-2:




Contribuição: Vinicius Bittencourt ([email protected])
	  

Search Paypal
auto scroll beats size up size down change color
tab show chords e-chords YouTube Clip e-chords hide all tabs e-chords go to top tab