Box Car Racer

home > Box Car Racer

All Systems Go (ver. 2) Drum Tab

Box Car Racer

Difficulty: nolevelnolevel

tuner correct add songbook print version text version save to e-mail
chordsukulelecavacokeyboardtabbassdrummharmonicsflute Guitar Pro
chords

All Systems Go (ver. 2)

  		


Song:    All Systems Go
Band:    Boxcar Racer
Album:   Boxcar Racer
Drummer: Travis Barker
Tabber:  jarred
Timing:  4/4



INTRO
 
 |~~~~~PLAY4X~~~~~|
S|----------------|
B|----------------|

 |~~~~~~~~~~~~~~~~~~~~~~~~~~~~~PLAY2X~~~~~~~~~~~~~~~~~~~~~~~~~~~~~~~~|
c1|x---------------|----------------|x---------------|----------------|
c2|x---------------|----------------|x---------------|----------------|
R |----X---X---X---|X---X---X---X---|----X---X---X---|X---X-----------|
t |----------------|----------------|----------------|--------f-------|
S |--------o-----o-|--------o-------|--------o-----o-|------------f---|
F |----------------|----------------|----------------|----------------|
B |o-----o-----o---|--o-o------oo-o-|o-----o-----o---|--o-o-----o---o-|

Verse 1
C|x---------------|----------------|----------------|----------------|
H|X-x-X-x-X-x-X-x-|X-x-0---X-x-X-x-|X-x-X-x-X-x-X-x-|X-x-0-----x-X-x-|
S|--------o-------|--------o-------|--------o-------|--------f-------|
B|o-----o-------o-|--o-o-----------|----o---------o-|--o-o-----o-----|

H|X-x-X-x-X-x-X-x-|X-x-0---X-x-X-x-|X-x-X-x-X-x-X-x-|X-x-0-----------|
S|--------o-------|--------o-------|--------o-------|--------f-oo-oo-|
B|o-----o-------o-|--o-o-----------|----o---------o-|--o-o-----------|

H|X-x-X-x-X-x-X-x-|X-x-0---X-x-X-x-|X-x-X-x-X-x-X-x-|X-x-0-----x-X-x-|
S|--------o-------|--------o-------|--------o-------|--------f-------|
B|o-----o-------o-|--o-o-----------|----o---------o-|--o-o-----o-----|

H|X-x-X-x-X-x-X-x-|X-x-0---X-x-X-x-|X-x-X-x-X-x-X-x-|X-x-0-----------|
S|--------o-------|--------o-------|--------o-------|--------f---f---|
B|o-----o-------o-|--o-o-----------|----o---------o-|--o-o-----o---o-|

Chorus             |~~~~~PLAY2X~~~~~|
C |x---------------|----------------|----------------|
Ch|----x-----------|----------------|----------------|
R |------x-x-x-x-x-|x-x-x-x-x-x-x-x-|x---------------| China 2nd time only
H |----------------|----------------|---------X------|
T |----------------|----------------|------o---o--o--|
S |----o-------o---|----o-------o---|--o-oo?-o---o---|
F |----------------|----------------|-------o---o--oo|
B |o-------o-o-----|o-o-----o-o-----|o--------o------|
                  
                  
  China is only on the second chorus only                
C |x---------------|----------------|----------------|----------------|
Ch|----x-----------|----------------|----------------|----------------|
R |------x-x-x-x-x-|x-x-x-x-x-x-x-x-|x---------------|----------------|
H |----------------|----------------|------X-----X---|--X-X---X-X-----|
T |----------------|----------------|----------------|----------------|
S |----o-------o---|----o-------o---|--oooo--oooo--oo|oo----oo----oooo|
F |----------------|----------------|----------------|----------------|
B |o-------o-o-----|o-o-----o-o-----|o-----o-----o---|--o-o---o-o-----|


Bridge 1
H|X----------------|---------------|
t|-----------------|---------dd----|
S|-----------------|-------f-------|
F|-----------------|-----------o---|
B|o----------------|--------o--o-o-|

PT 1

c1|x---------------|----------------|x---------------|----------------|
c2|x---------------|----------------|x---------------|----------------|
R |----X---X---X---|X---X---X---X---|----X---X---X---|X---X-----------|
t |----------------|----------------|----------------|--------f-------|
S |--------o-----o-|--------o-------|--------o-----o-|------------f---|
F |----------------|----------------|----------------|----------------|
B |o-----o-----o---|--o-o------oo-o-|o-----o-----o---|--o-o-----o---o-|
Verse 2

C|x---------------|----------------|----------------|----------------|
H|X-x-X-x-X-x-X-x-|X-x-0---X-x-X-x-|X-x-X-x-X-x-X-x-|X-x-0-----x-X-x-|
S|--------o-------|--------o-------|--------o-------|--------f-------|
B|o-----o-------o-|--o-o-----------|----o---------o-|--o-o-----o-----|

H|X-x-X-x-X-x-X-x-|X-x-0---X-x-X-x-|X-x-X-x-X-x-X-x-|X-x-0-----------|
S|--------o-------|--------o-------|--------o-------|--------f-oo-oo-|
B|o-----o-------o-|--o-o-----------|----o---------o-|--o-o-----------|

H|X-x-X-x-X-x-X-x-|X-x-0---X-x-X-x-|X-x-X-x-X-x-X-x-|X-x-0-----x-X-x-|
S|--------o-------|--------o-------|--------o-------|--------f-------|
B|o-----o-------o-|--o-o-----------|----o---------o-|--o-o-----o-----|

H|X-x-X-x-X-x-X-x-|X-x-0---X-x-X-x-|X-x-X-x-X-x-X-x-|X-x-0-----x-X-x-|
S|--------o-------|--------o-------|--------o-------|--------f-------|
B|o-----o-------o-|--o-o-----------|----o---------o-|--o-o-----o-----|

S|X---------------|----------------|
B|o---------------|----------------|



Repeat chorus (with china)

                  




                  |~~~~~PLAY2X~~~~~|
C|x---x-----------|----------------|----------------|
R|------x-x-x-x-x-|x-x-x-x-x-x-x-x-|x-x-------------|
H|----------------|----------------|--------X-------|
t|----------------|----------------|------------oo--|
S|----o-------o---|----o-------o---|----f-f---f-----|
F|----------------|----------------|--------------oo|
B|o-------o-o-----|o-o-----o-o-----|o-------o---o---|

C|x---x-----------|----------------|----------------|----------------|
R|------x-x-x-x-x-|x-x-x-x-x-x-x-x-|x---------------|----------------|
H|----------------|----------------|------X-----X---|----------------|
t|----------------|----------------|----------------|--X-X---X-X-----|
S|----o-------o---|----o-------o---|--oooo--oooo--oo|oo----oo----oooo|
F|----------------|----------------|----------------|----------------|
B|o-------o-o-----|o-o-----o-o-----|o-----o-----o---|--o-o---o-o-----|

Interlude

C|x---------------|----------------|x---------------|x---------------|
R|----x-x-x-x-x-x-|x-x-x-x-x-------|----x-x-x-x-x-x-|----------------|
S|----------------|----------------|----------------|--oo-oo-o-oo-oo-|
T|----------------|----------oo----|----------------|----------------|
F|----------------|------------oooo|----------------|----------------|
B|o---o---o---o---|o---o---o---o---|o---o---o---o---|o---o---o---o---|


C|x---------------|----------------|x---------------|x---------------|
R|----x-x-x-x-x-x-|x-x-x-x-x-------|----x-x-x-x-x-x-|----------------|
t|----------------|----------------|----------------|--dd------dd----|
S|o---------------|----------------|----------------|-----oo-o----oo-|
F|----------------|----------oooooo|----------------|----------------|
B|o---o---o---o---|o---o---o---o---|o---o---o---o---|o---o---o---o---|

C|X---------------|----------------|x---------------|x---------------|
R|----x-x-x-x-x-x-|x-x-x-x-x-------|----x-x-x-x-x-x-|----------------|
S|----------------|----------------|----------------|--oo-oo-o-oo-oo-|
F|----------------|----------oooooo|----------------|----------------|
B|o---o---o---o---|o---o---o---o---|o---o---o---o---|o---o---o---o---|

C|x---x-----------|----------------|----------------|----------------|
R|------x-x-x-x-x-|x-x-x-x-x-x-x-x-|x-x-------------|----------------|
S|o---------------|----------------|----o-o-o-o-o-o-|o---------------|
F|----------------|----------------|----o-o-o-o-o-o-|o---------------|
B|o---o---o---o---|o---o---o---o---|o---o---o---o---|o---------------|

S|----------------|
B|----------------|

Repeat Chorus 2 for Chorus 3

Bridge 2
 
                  |~~~~~PLAY2X~~~~~|
H|X---------------|----------------|----------------|
t|----------------|----------------|----------dd----|
S|----------------|----------------|--------f-------|
f|----------------|----------------|------------o---|
B|o---------------|----------------|---------o--o-o-|

Outro
                                                          (LET RING)
c1|x---------------|----------------|x---------------|--------X-------|
c2|x---------------|----------------|x---------------|--------X-------|
R |----X---X---X---|X---X-----------|----X---X---X---|X---X-----------|
t |----------------|----------------|----------------|--o-------------|
S |--------o-----o-|-------f-dd-f-f-|--------o-----o-|----------------|
F |----------------|----------------|----------------|----------------|
B |o-----o-----o---|--o-o--------o--|o-----o-----o---|----o-o---------|

	  

Full key step upFull key step up
Half key step upHalf key step up
Half key step downHalf key step down
Full key step downFull key step down
Search Paypal
auto scroll beats size up size down change color
tab show chords e-chords YouTube Clip e-chords hide all tabs e-chords go to top tab